Swingin Utters

Stupid Lullabies(Tabs)

Swingin Utters

Key: E

roll up this ad to continue

	        Swingin Utters eh akela banda americana q tem várias músicas em jogos 
d video-game como Tony Hawk's Pro Skater e Dave Mirra's Pro BMX
 
Intro ( Parte 1 ) 
 
Guita 1 
 
      E          F#m        G#m         A5 
e|---------------------------------------------|  
B|---------------------------------------------|  
G|-1-1-1-1-1-----------------------------------|  
D|-2-2-2-2-2--4-4-4-4-4--6-6-6-6-6--7-7-7-7-7--|  
A|-2-2-2-2-2--4-4-4-4-4--6-6-6-6-6--7-7-7-7-7--|  
E|------------2-2-2-2-2--4-4-4-4-4--5-5-5-5-5--|  
 
Guita 2 ( entra no finalzim da primeira riffada da guita 1 ) 
 
      E5         D#5           C#5 
e|---------------------------------------------|  
B|---------------------------------------------|  
G|-9-9-9-9-9--8-8-8-8-8------------------------|  
D|-9-9-9-9-9--8-8-8-8-8--11-11-11-11-11--------| 
A|-7-7-7-7-7--6-6-6-6-6--11-11-11-11-11--------|  
E|------------------------9--9--9--9--9--------| 
 
 
Intro ( Parte 2 ) 
 
Guita 1 ( três vezes ) 
 
      E          F#m        G#m         A5 
e|---------------------------------------------|  
B|---------------------------------------------|  
G|-1-1-1-1-1-----------------------------------|  
D|-2-2-2-2-2--4-4-4-4-4--6-6-6-6-6--7-7-7-7-7--|  
A|-2-2-2-2-2--4-4-4-4-4--6-6-6-6-6--7-7-7-7-7--|  
E|------------2-2-2-2-2--4-4-4-4-4--5-5-5-5-5--|  
 
Guita 2 ( três vezes ) 
 
    E5  D#5 / E5     C#5         A5   B5 
e|---------------------------------------------|  
B|---------------------------------------------|  
G|-9-9-9-8/9--9--------------------------------|  
D|-9-9-9-8/9--9--11-11-11--11--7-7-7--9--------| 
A|-7-7-7-6/7--7--11-11-11--11--7-7-7--9--------|  
E|---------------9--9--9---9---5-5-5--7--------| 
 
As duas guitas 
 
      B5          A5 
e|-------------------------|  
B|-------------------------|  
G|-------------------------|  
D|-9-9-9-9-9--7-7-7-7-7----| 
A|-9-9-9-9-9--7-7-7-7-7----|  
E|-7-7-7-7-7--5-5-5-5-5----| 
 
 
Intro ( Parte 3 ) 
              
Guita 1 ( duas vezes ) 
                                    1vez   2vez 
e|--------------------------------|-------|----|  
B|---7-9-7-----5-7-5-----4-5-4----|-7b9r7-|-7~-|  
G|-9-------9-8-------8-6-------6--|-------|----|  
D|--------------------------------|-------|----| 
A|--------------------------------|-------|----| 
E|--------------------------------|-------|----| 
 |________________________________| 
                 |                     
                 | 
toke isso e mude o final em kda vez 
 
Guita 2 ( duas vezes ) 
 
       C#5             B5        A5          G5 
e|--------------------------------------------------|  
B|--------------------------------------------------|  
G|--------------------------------------------------|  
D|-11-11-11-11-11--9-9-9-9-9--7-7-7-7-7--5-5-5-5-5--| 
A|-11-11-11-11-11--9-9-9-9-9--7-7-7-7-7--5-5-5-5-5--|  
E|--9--9--9--9--9--7-7-7-7-7--5-5-5-5-5--3-3-3-3-3--| 
 
 
O verso eh simplesmente as três partes da intro seguidas 
 
 
Solo 
 
Guita 1 ( cinco vezes ) 
 
      E          F#m        G#m         A5       E 
e|---------------------------------------------|---| 
B|---------------------------------------------|---|  
G|-1-1-1-1-1-----------------------------------|-1-|  
D|-2-2-2-2-2--4-4-4-4-4--6-6-6-6-6--7-7-7-7-7--|-2-|  
A|-2-2-2-2-2--4-4-4-4-4--6-6-6-6-6--7-7-7-7-7--|-2-|  
E|------------2-2-2-2-2--4-4-4-4-4--5-5-5-5-5--|---|  
                                               |___| 
                          termina nesse acorde___| 
Guita 2 
 
e|--------------------------|--------|-------------------|  
B|-5-0-5-7-0-7-9-0-9-10-9-7-|-10-9-7-|-7-7-5-5-5-5etc-5b-| 
G|--------------------------|--------|-------------------| 
D|--------------------------|--------|-------------------| 
A|--------------------------|--------|-------------------| 
E|--------------------------|--------|-------------------| 
 |__________________________|________|___________________| 
         duas vezes             5x     toke o etc até a 
                                           base acabá 
 
 
Nuncam deixem uma garota muito segura num namoro hein galera... flwzzz !!!
	        

See Also: