Swingin Utters

Poor Me(Tabs)

Swingin Utters

Key: C

roll up this ad to continue

	        


Tuning: Standard (EADGBe) 

Song order: 

Intro x 2 
Verse x 2 
Pre-Chorus 
Chorus x 2 
Verse x 2 
Pre-Chorus 
Bridge x 2 
Chorus x 4 
Intro x 4 


Intro/Verse/Chorus Chords 
e|---------------------------------------------------------------------------| 
B|---------------------------------------------------------------------------| 
G|--5------------------------------------------------------------------------| 
D|--5---5----7----3----------------------------------------------------------| 
A|--3---5----7----3----------------------------------------------------------| 
E|------3----5----1----------------------------------------------------------| 
    C5  G5   A5   F5 

Intro/Verse Riff 
e|---------------------------------------------------------------------------| 
B|---------------------------------------------------------------------------| 
G|-----5-9-7-9p7-5-7-8p7-5-0-5------5-9-7-9p7-5-7-10~------------------------| 
D|---------------------------------------------------------------------------| 
A|--3---------------------------3--------------------------------------------| 
E|---------------------------------------------------------------------------| 
    Part1                       Part2 


Pre-Chorus                                
e|---------------------------------------------------------------------------| 
B|---------------------------------------------------------------------------| 
G|---------------------------------------------------------------------------| 
D|----5---3---5---3---5------------------------------------------------------| 
A|----5---3---5---3---5------------------------------------------------------| 
E|----3---1---3---1---3------------------------------------------------------| 
     G5   F5  G5  F5  G5 
The last F5 and G5 are played for half a bar each 

Bridge 
e|---------------------------------------------------------------------------| 
B|---------------------------------------------------------------------------| 
G|------5~--------7~---9~----------------------------------------------------| 
D|--7~--5~--3~----7~---9~----------------------------------------------------| 
A|--7~--3~--3~----5~---7~----------------------------------------------------| 
E|--5~------1~---------------------------------------------------------------| 
    A5  C5  F5    D5   E5 

Outro 
e|---------------------------------------------------------------------------| 
B|---------------------------------------------------------------------------| 
G|-----5-9-7-9p7-5-7-8p7-5-0-5------5-9-7-9p7-5-7-10--12--5~-----------------| 
D|---------------------------------------------------------------------------| 
A|--3---------------------------3--------------------------------------------| 
E|---------------------------------------------------------------------------| 
    Part1                       Part2 
Play part 1 3 times then part 2 


************************************ 

| /   slide up 
| \   slide down 
| h   hammer-on 
| p   pull-off 
| ~   vibrato 
| +   harmonic 
| x   Mute note 
| b   Bend 
| pb  Pre-bend 
| br  Bend release 
| pbr Pre-bend release 
| brb Bend release bend 

************************************
	        

See Also: