E-Chords
Sugar Kane

Por Nossa Paz(Tabs)

Sugar Kane

Key: C5
 
Intro: 
 
e||-----------------------------------------------------------------|| 
B||-----------------------------------------------------------------|| 
G||---9---9--12-12-12-10-10--(-9--9)--12--12--12-12-9--9-9-10~------|| 
D||--10-10---10-10-10-10-10--(10-10)--12--12--12-12-----------------|| 
A||-----------------------------------10--10--10-10-7--7-7--8~------|| 
E||-----------------------------------------------------------------|| 
  |-------------2X-----------------| 
  |------------------------------4X----------------------------| 
 
Verso 1: 
 
C5        E5       C5 
Fomos obrigados a aceitar 
          F5       C5 
O nosso papel de cidadão 
            G5         E5 
Levar nossas vidas sem pensar 
                F5        C5 
Nos encaixar nos moldes do padrão 
 
Fomos convencidos a esperar 
Os heróis que nos libertarão 
Que nos impedirão de pensar 
O modo de fugir desta prisão 
 
 
C5            F5 
Será uma revolução, 
C5          F5 
a nossa revolução. 
 
Ponte: 
 
    C#5                  G5          E5     F5 
G||--12-12-12-12-12-12-12-12-12--12--12-12-9--9-9--10~---|| 
D||--10-10-10-10-10-10-10-10-12--12--12-12-9--9-9--10~---|| (2X) 
A||----------------------------------10--10--10-10-7--7-7---8~----|| 
 
 
 
 
Verso 2: (p.m.) 
 
Fomos programados a tentar 
Levar uma vida de prisão 
A cada dia ter que levantar 
E esperar os dias que virão 
 
C5            F5 
Será uma revolução, 
C5          F5 
a nossa revolução 
 
 
Refrão 2: 
C5         G5    C5          F5                   
   Por nossa paz,       Por nossa diversão 
C5         G5    E5       F5 
   Pra nos curar,       todos pensarão (todos terão voz) 
 
 
Ponte: 
 
    C#5                      G5            E5     F5 
G||--12-12-12-12-12-12-12-12-12--12--12-12-9--9-9--10~---|| 
D||--10-10-10-10-10-10-10-10-12--12--12-12-9--9-9--10~---|| (2X) 
A||--------------------------10--10--10-10-7--7-7---8~----|| 
 
 
Ainda falta umas partes da outra guitarra, mas, assim que tirar envio. 
 
 
_______________________________________________________ 
Contribuição: Daniel de Castro Linhares([email protected]) 

roll up this ad to continue

share this page

See Also: