E-Chords
Stahlmann

Auf Ewig(Tabs)

Stahlmann

roll up this ad to continue

Key: C
Drop C 

Intro et Refrain 

D|---------------------------| 
A|---------------------------| 
F|---------------------------| 
C|7------5------0------3-----| 
G|7(x16)-5(x16)-0(x16)-3(x16)| 
C|7------5------0------3-----| 

Couplet 

D|-------| 
A|-------| 
F|--0---3| 
C|2---2--| 
G|-------| 
C|-------| 

Outro 


D|--------------------------------| 
A|--------------------------------| 
F|--------------------------------| 
C|--------------------------------| 
G|7-----8-----7-8-7-----8-----7-8-| 
C|--3-3---3-3-------0-0---0-0-----| 
share this page

See Also: