E-Chords
Sonny Rollins

Tenor Madness(Tabs)

Sonny Rollins

Key: Bb
       Bb 7             Eb 7             Bb 7 

e|----|---------------|----------------|----------------|---------------| 
B|--3-|---------------|--------------3-|----------------|-------------6-| 
G|----|--3-----3----6-|--3-----3-------|--3-----3-5-3---|-3-5-3-3-------| 
D|----|------5--------|------5---------|------5-------5-|---------------| 
A|----|---------------|----------------|----------------|---------------| 
E|----|---------------|----------------|----------------|---------------| 

   Eb 7                               Bb 7             G7 #9 

e|----------------|----------------|----------------|----------------| 
B|--------------6-|--------------3-|----------------|----------------| 
G|--3-----3-------|--3-----3-------|--3-----3-5-3---|-3-5-3-3------5-| 
D|------5---------|------5---------|------5-------5-|----------------| 
A|----------------|----------------|----------------|----------------| 
E|----------------|----------------|----------------|----------------| 

  
   Cm 7              F7              Bb 7 

e|----------------|----------------|----------------|----------------| 
B|----------------|--------------3-|----------------|----------------| 
G|------5-4-------|--3-------------|--3-----3-5-3---|--3-5-3-3-------| 
D|--5-------5-----|----5-6-7-------|------5-------5-|----------------| 
A|------------6-3-|----------------|----------------|----------------| 
E|----------------|----------------|----------------|----------------| 

roll up this ad to continue

share this page

See Also: