E-Chords
Sonny Rollins

Alfies Theme(Tabs)

Sonny Rollins

Key: A
      Bb m               Gm7(b5)  Gbmaj7  Bb m     Gm7(b5)  Cm7(b5)    F7(b9)  

e|---|-----------------|-----------------|-----------------|----------------| 
B|---|-----6-----------|-6---------------|-6---------------|-------6--------| 
G|---|---6---6-8---6-8-|---6-8-8-6-8-----|---6-8-8-6---6-8-|-8---6----------| 
D|---|-8---------------|-------------8---|-----------8-----|----------------| 
A|-8-|-----------------|-----------------|-----------------|--------------8-| 
E|---|-----------------|-----------------|-----------------|----------------| 

   Bb m              Gm7(b5)    C7(b9)   Bb m     Gm7(b5)  Cm7 F7  Bbm 
  
e|-----------------|-------------------|-----------------|------------------| 
B|-----6-----------|-6-----------------|-6---------------|------------------| 
G|---6---6-8-8-6-8-|---6-8-8-6-8---6-8-|---6-8---6---6-8-|-8---6------------| 
D|-8---------------|--------------8----|-----------8-----|-------8----------| 
A|-----------------|-------------------|-----------------|----------------8-| 
E|-----------------|-------------------|-----------------|------------------| 


Part B 

   Bb m      Ab7  Gb7      F7(b9)    Bb m    Ab7    Gb7      F7(b9) 
     
e|--------------|------------------|--------------|------------------| 
B|-------9-9--7-|------------------|-------9-9--7-|------------------| 
G|--------------|------------------|--------------|------------------| 
D|-----8--------|------------------|-----8--------|------------------| 
A|--------------|------------------|--------------|------------------| 
E|--------------|------------------|--------------|------------------|  

roll up this ad to continue

share this page

See Also: