E-Chords
Sidney Gish

I'm Filled With Steak And Cannot Dance(Tabs)

Sidney Gish

roll up this ad to continue

Basically riffing on the A major scale 

e|---------------------------------------------------------------------------| 
B|---------------------------------------------------------------------------| 
G|---------------------------------------------------------------------------| 
D|-----------------4---4-4---4---------------2/4-----------------------------| 
A|-----------4-7---------------4-----------------7---------7---7-4-7-7-7-4-7-| 
E|-5---5-5-7---------------------7---7-7-5-7---------0-0---------------------| 

e|---------------------------------------------------------------------------| 
B|---------------------------------------------------------------------------| 
G|---------------------------------------------------------------------------| 
D|-----4-4---------------------2/4-------------------------------------------| 
A|---7-------7-5-4-----------------7---5---4---------------------------------| 
E|-----------------7---7-7-5-7-----------------7-----------------------------| 



************************************ 

| /  Slide up 

************************************ 
share this page

See Also: