E-Chords
Shocking Pinks

Victims(Tabs)

Shocking Pinks

roll up this ad to continue

Key: D
Intro: 
e|-----------------------|      |-----------------------------------------------| 
B|-----------------------|      |-----------------------------------------------| 
G|-----------------------|      |-----------------------------------------------| 
D|-----------------------|      |-----------------------------------------------| 
A|-----------------------|      |-----------------------------------------------| 
E|-10--10-10-10-10-10-10-| x2 |-10--10-10-10-10-10-10-10-10-10-10-10-10-10-10-| x3 
   * this could be open D in drop D tuning 
     but since this tab is in Standard tuning... * 

VERSE A:                     Chorus A:                     x3 
e|-------------------|      |---------------------|---------------------| 
B|-------------------|      |---------------------|---------------------| 
G|-------------------|      |---------------------|---------------------| 
D|-------------------|      |---------------------|---------------------| 
A|-5---5-5-8-8-7-7-5-|      |-5--555555-4444-4444-|-5555-5555-4444-4444-| 
E|-------------------| x4 |---------------------|---------------------| 

VERSE B: 
e|-------------------|      |-----------------------------| 
B|-------------------|      |-----------------------------| 
G|-------------------|      |-----------------------------| 
D|-------------------|      |-----------------------------| 
A|-5---5-5-8-8-7-7-5-|      |-5---5-5-8-8-7-7-5--555/10\5-| 
E|-------------------| x3 |-----------------------------| 

Chorus B: 
e|---------------------|-----------------------------------| 
B|---------------------|-----------------------------------| 
G|---------------------|-----------------------------------| 
D|---------------------|-----------------------------------| 
A|-5--555555-4444-4444-|-5555-5555-10-10-10-10-10-10-10-10-| 
E|---------------------|-----------------------------------| 

e|-------------------------------------------------------| 
B|-------------------------------------------------------| 
G|-------------------------------------------------------| 
D|-------------------------------------------------------| 
A|-9999-9999-4444-4444-5555-5555-4444-4444-2-------0-----| 
E|-------------------------------------------------------| 

SECOND PART OF SONG: 

  Guitar 1 
e|-3-33-333-3-33-333---2-22-222-2-22-222---|       |-2--------| 
B|-3-33-333-3-33-333---3-33-333-3-33-333---|       |-3--------| 
G|-0-00-000-0-00-000---2-22-222-2-22-222---|       |-2--------| 
D|-0-00-000-0-00-000---0-00-000-0-00-000---|       |-0--------| 
A|-2-22-222-2-22-222---0-00-000-0-00-000---|       |-0--------| 
E|-3-33-333-3-33-333-----------------------| x12 |----------| 

  Guitar 2 (comes in at 1:08) 
e|----------------|      |-------------------------------------------| 
B|----------------|      |-------------------------------------------| 
G|-9-/-11---12-11-|      |-9-/-11---9-\7-77--------------------------| 
D|----------------|      |--------------------11-/12-9---7-/9\7/9-7--| 
A|----------------|      |-------------------------------------------| 
E|----------------| x8 |-------------------------------------------| 

e|----------------------|-------------------------------------------| 
B|---------8----8-------|-------------------------------------------| 
G|-9-/-11----11---11/14-|--------7----9---7---7-----7---9-9-/11-9-7-| 
D|----------------------|-7--7/9----9---9---9-----9---9-------------| 
A|----------------------|-------------------------------------------| 
E|----------------------|-------------------------------------------| 

e|---------------------|-----------------------| 
B|---------------------|-----------------------| 
G|-6/7-----------------|-----------------------| 
D|-----9-7---7-7-7-7-7-|-7-7\5-4---------------| 
A|---------------------|---------5/7-9-9-----5-| 
E|---------------------|-----------------------| 

End. Please rate! 
share this page

See Also: