E-Chords
Self Defense Family

I'm Going Through Some Shit(Tabs)

Self Defense Family

Key: D
    
 Main Riff VVVV                

e|---------------------------------------------------------------------------| 
B|----3-3-5----------------------------3-3-5b--------------------------------| 
G|--4-------4-4-2-4-0----------------4--------4-2-4-0------------------------| 
D|---------------------------------------------------------------------------| 
A|---------------------------------------------------------------------------| 
E|---------------------------------------------------------------------------| 

   Bridge VVVV 

e|-----0---------------------------------------------------------------------| 
B|-----2--3------------------------------------------------------------------| 
G|-----2--0------------------------------------------------------------------| 
D|-----2--0------------------------------------------------------------------| 
A|---0-0--2------------------------------------------------------------------| 
E|--------3------------------------------------------------------------------| 

  (listen carefully for the rhythm in this bit) 

e|---------------------------------------------------------------------------| 
B|-------3--------------3-------3--------------------------------------------| 
G|-----2--------------2-------2----------------------------------------------| 
D|---0-----------------------------------------------------------------------| 
A|------------------3--------------------------------------------------------| 
E|--------------------------1------------------------------------------------| 

e|---------------------------------------------------------------------------| 
B|---------------------------------------------------------------------------| 
G|---7--------5--------------------------------------------------------------| 
D|---7-X16----5-X8---5-------------------------------------------------------| 
A|---5--------3------5--X8---------------------------------------------------| 
E|-------------------3-------------------------------------------------------| 

e|---------------------------------------------------------------------------| 
B|------3-----3---3h5-5-5p3-3--------3----3---3-5-5-5-5-3-0--3-5-5-5-5-3-0---| 
G|----2-----2----------------------2----2------------------------------------| 
D|--0-----0----------------------0----0--------------------------------------| 
A|---------------------------------------------------------------------------| 
E|---------------------------------------------------------------------------| 

e|---------------------------------------------------------------------------| 
B|---------------------------------------------------------------------------| 
G|--7-7--7-7--7-7--7-7--7-7-7-7--5-5--5-5------------------------------------| 
D|--7-7--7-7--7-7--7-7--7-7-7-7--5-5--5-5--5-3--5-3--3-5--5------------------| 
A|--5-5--5-5--5-5--5-5--5-5-5-5--3-3--3-3--5-3--5-3--3-5--5------------------| 
E|-----------------------------------------3-1--3-1--1-3--3------------------| 

And then you just strum this D chord while the bass does its rundown until the end. 

e|---------------------------------------------------------------------------| 
B|---------------------------------------------------------------------------| 
G|--7------------------------------------------------------------------------| 
D|--7------------------------------------------------------------------------| 
A|--5------------------------------------------------------------------------| 
E|---------------------------------------------------------------------------| 



************************************ 

| /   slide up 
| \   slide down 
| h   hammer-on 
| p   pull-off 
| ~   vibrato 
| +   harmonic 
| x   Mute note 
| b   Bend 
| pb  Pre-bend 
| br  Bend release 
| pbr Pre-bend release 
| brb Bend release bend 

************************************ 

roll up this ad to continue

share this page

See Also: