E-Chords
Saint Pepsi

Fiona Coyne(Tabs)

Saint Pepsi

Intro/Verse/Chorus 

e|-14------12-------12-------------------------------------------------------| 
B|-12------14-------15-------------------------------------------------------| 
G|-12------14-------14-------------------------------------------------------| 
D|---------------------------------------------------------------------------| 
A|---------------------------------------------------------------------------| 
E|---------------------------------------------------------------------------| 

Pre-Chorus (basic chords) 

e|-12--------10-------9---------7--------------------------------------------| 
B|-14--------12-------10--------7--------------------------------------------| 
G|-14--------12-------9---------7--------------------------------------------| 
D|---------------------------------------------------------------------------| 
A|---------------------------------------------------------------------------| 
E|---------------------------------------------------------------------------| 

Pre-Chorus (strumming/style) 

e|----12-x-x----12-x-x----12-x-x----12-x-10-x-x-10-10-10-10-x-x----10-x-x----| 
B|-14----x-x-14----x-x-14----x-x-14----x-12-x-x-12-12-12-12-x-x-12----x-x----| 
G|-14----x-x-14----x-x-14----x-x-14----x-12-x-x-12-12-12-12-x-x-12----x-x----| 
D|---------------------------------------------------------------------------| 
A|---------------------------------------------------------------------------| 
E|---------------------------------------------------------------------------| 
   d  u  d u d  u  d u d  u  d u d  u  d u  d u d  d  d  d  d u d  u  d u 

e|----9-x-x----9-x-x----9-x-x----9-x-7-x-x-7-7-7-7-x-x----7-x-x--------------| 
B|-10---x-x-10---x-x-10---x-x-10---x-7-x-x-7-7-7-7-x-x-7----x-x--------------| 
G|-9----x-x-9----x-x-9----x-x-9----x-7-x-x-7-7-7-7-x-x-7----x-x--------------| 
D|---------------------------------------------------------------------------| 
A|---------------------------------------------------------------------------| 
E|---------------------------------------------------------------------------| 
   d  u d u d  u d u d  u d u d  u d u d u d d d d d u d  u d u 

roll up this ad to continue

share this page

See Also: