E-Chords
Rondé

Naturally(Tabs)

Rondé

NATURALLY - RONDÉ 

verse 1 
0:36 - 0:50 
e|--------7-------------9---------------------| 
B|-----------------11-------------------------| 
G|---/8------------------------11---10--------| 
D|--------------------------------------------| 
A|--------------------------------------------| 
E|--------------------------------------------| 

e|--------7-------------9---------------------| 
B|-----------------11-----------9-------------| 
G|---/8-----------------------------10--------| 
D|--------------------------------------------| 
A|--------------------------------------------| 
E|--------------------------------------------|? 

Chorus 
0:52 - 1:23 
e|-------------------------------------------------| 
B|-14-16----14-16----14-16-14-16----14-16----14-16-| 
G|-------15-------15-------------15-------15-------| 
D|-------------------------------------------------| 
A|-------------------------------------------------| 
E|-------------------------------------------------| 
                                                       X2 
e|-------------------------------------------------| 
B|-14-16----14-16----14-16-14-16----14-16----14-16-| 
G|-------------------------------15-------15-------| 
D|-------16-------16-------------------------------| 
A|-------------------------------------------------| 
E|-------------------------------------------------| 

verse 2 
1:25 - 1:40 
e|--------------------------------------------| 
B|--------------------------------------------| 
G|----8--------------------11-------10--------|  X2 
D|--------------------------------------------| 
A|--------------------------------------------| 
E|--------------------------------------------| 

1:41 
e|--------7-------------9---------------------| 
B|-----------------11-------------------------| 
G|---/8------------------------11---10--------| 
D|--------------------------------------------| 
A|--------------------------------------------| 
E|--------------------------------------------| 

e|--------7-------------9---------------------| 
B|-----------------11-----------9-------------| 
G|---/8-----------------------------10--------| 
D|--------------------------------------------| 
A|--------------------------------------------| 
E|--------------------------------------------| 

Chorus 2 
1:57 - 2:28 
e|-------------------------------------------------| 
B|-14-16----14-16----14-16-14-16----14-16----14-16-| 
G|-------15-------15-------------15-------15-------| 
D|-------------------------------------------------| 
A|-------------------------------------------------| 
E|-------------------------------------------------| 
                                                        X2 
e|-------------------------------------------------| 
B|-14-16----14-16----14-16-14-16----14-16----14-16-| 
G|-------------------------------15-------15-------| 
D|-------16-------16-------------------------------| 
A|-------------------------------------------------| 
E|-------------------------------------------------| 

Bridge 
2:40 -  2:58 
e|-------------------------------------------------| 
B|-14-16----14-16----14-16-14-16----14-16----14-16-| 
G|-------15-------15-------------15-------15-------| 
D|-------------------------------------------------| 
A|-------------------------------------------------| 
E|-------------------------------------------------| 

e|-------------------------------------------------| 
B|-14-16----14-16----14-16-14-16----14-16----14-16-| 
G|-------15-------15-------------15-------15-------| 
D|-------------------------------------------------| 
A|-------------------------------------------------| 
E|-------------------------------------------------| 

Chorus 3 
3:00 - 3:28 
e|-------------------------------------------------| 
B|-14-16----14-16----14-16-14-16----14-16----14-16-| 
G|-------15-------15-------------15-------15-------| 
D|-------------------------------------------------| 
A|-------------------------------------------------| 
E|-------------------------------------------------| 
                                                        X2 
e|-------------------------------------------------| 
B|-14-16----14-16----14-16-14-16----14-16----14-16-| 
G|-------------------------------15-------15-------| 
D|-------16-------16-------------------------------| 
A|-------------------------------------------------| 
E|-------------------------------------------------| 



************************************ 

| /  Slide up 
| X   

************************************ 

roll up this ad to continue

share this page

See Also: