E-Chords
Ratatat

Nostrand(Tabs)

Ratatat

Intro  

e|--------15---15h16p15---13-------------------------------------------------| 
B|--12s14----------------------12s14---17------------------------------------| Repeat 4x 
G|-------------------------------------------15s12---12----------------------| 
D|---------------------------------------------------------------------------| 
A|---------------------------------------------------------------------------| 
E|---------------------------------------------------------------------------| 

Chorus 

e|---x---x-x---x---x---x------------------| 
B|---x---3-3---x---x---x------------------| 
G|---5---3-3---x---x---x------------------| 
D|---6---5-5---1---5---8------------------| 
A|---6---5-5---3---3---6------------------| 
E|---4---x-x---x---x---x------------------| 

e|---------------------------------------------------------------------------| 
B|---------------------------------------------------------------------------| 
G|---------------------------------------------------------------------------| 
D|---8s10-10p8-10p8-10p8-10p8-10-8------------10---13---12h13p12-13-15-17----| 
A|---------------------------------10----------------------------------------| 
E|---------------------------------------------------------------------------| 

e|---------------------------------------------------------------------------| 
B|---------------------------------------------------------------------------| 
G|---------------------------8-10--------------------------------------------| 
D|---8s10-10-10-10-10p8-10-8-----------10-10-10-12-12-13---------------------|  
A|--------------------------------10---10-10-10-10-10-10---------------------| 
E|---------------------------------------------------------------------------| 

e|---------------------------------------------------------------------------| 
B|---------------------------------------------------------------------------| 
G|---------------------------------------------------------------------------| 
D|---8s10-10p8-10p8-10p8-10p8-10-8------------10---13---12h13p12-13-15-17----| 
A|---------------------------------10----------------------------------------| 
E|---------------------------------------------------------------------------| 

e|---------------------------------------------------------------------------| 
B|---------------------------------------------------------------------------| 
G|---------------------------8-10--------------------------------------------| 
D|---8s10-10-10-10-10p8-10-8-----------10-10-10-12-12-13---------------------|  
A|--------------------------------10---10-10-10-10-10-10---------------------| 
E|---------------------------------------------------------------------------| 

e|---------------------------------------------------------------------------| 
B|---------------------------------------------------------------------------| 
G|---------------------------------------------------------------------------| 
D|---8s10-10p8-10p8-10p8-10p8-10-8------------10---13---12h13p12-13-15-17----| 
A|---------------------------------10----------------------------------------| 
E|---------------------------------------------------------------------------| 

e|---------------------------------------------------------------------------| 
B|---------------------------------------------------------------------------| 
G|---------------------------8-10--------------------------------------------| 
D|---8s10-10-10-10-10p8-10-8-------------------------------------------------| 
A|--------------------------------10-----------------------------------------| 
E|---------------------------------------------------------------------------| 

Outro 

e|---13~---10~---10h11-10----------------------------------------------------| 
B|--------------------------13s8-8~---11~---11s13-13s8---8~------------------| 
G|---------------------------------------------------------------------------| 
D|---------------------------------------------------------------------------| 
A|---------------------------------------------------------------------------| 
E|---------------------------------------------------------------------------| 

e|----13~---10~---10h11-10---------------------------------------------------| 
B|-12-------------------------13s8-8~----------------------------------------| 
G|------------------------------------10~---10s12-12s5---5~------------------| 
D|---------------------------------------------------------------------------| 
A|---------------------------------------------------------------------------| 
E|---------------------------------------------------------------------------| 

************************************ 

| /   slide up 
| \   slide down 
| h   hammer-on 
| p   pull-off 
| ~   vibrato 
| +   harmonic 
| x   Mute note 
| b   Bend 
| pb  Pre-bend 
| br  Bend release 
| pbr Pre-bend release 
| brb Bend release bend 

************************************ 

roll up this ad to continue

share this page

See Also: