E-Chords
Rains

Pressure(Tabs)

Rains

Key: D
Tuning: Drop D: D A D G B e 

Intro: play once 

e|-----------------------------------------------------------------| 
B|-----------------------------------------------------------------| 
G|-----------------------------------------------------------------| 
D|-1-1-1-1-1-1-1-1-1-1-1-1-1-1-1-1-4-4-4-4-4-4-4-4-4-4-4-4-4-4-4-4-| 
A|-1-1-1-1-1-1-1-1-1-1-1-1-1-1-1-1-4-4-4-4-4-4-4-4-4-4-4-4-4-4-4-4-| 
D|-1-1-1-1-1-1-1-1-1-1-1-1-1-1-1-1-4-4-4-4-4-4-4-4-4-4-4-4-4-4-4-4-| 
   x x x x x x x x x x x x x x x x x x x x x x x x x x x x x x x x 

e|-----------------------------------------------------------------| 
B|-----------------------------------------------------------------| 
G|-----------------------------------------------------------------| 
D|-9-9-9-9-9-9-9-9-9-9-9-9-9-9-9-9-9-9-9-9-9-9-9-9-9-9-9-9-9-9-9-9-| 
A|-9-9-9-9-9-9-9-9-9-9-9-9-9-9-9-9-9-9-9-9-9-9-9-9-9-9-9-9-9-9-9-9-| 
D|-9-9-9-9-9-9-9-9-9-9-9-9-9-9-9-9-9-9-9-9-9-9-9-9-9-9-9-9-9-9-9-9-| 
   x x x x x x x x x x x x         x x x x x x x x x x x x 


Verse: play 2 times 

e|-----------------------------------------------------------------| 
B|-----------------------------------------------------------------| 
G|-----------------------------------------------------------------| 
D|-1-1-1-1-1-1-1-1-1-1-1-1-1-1-1-1-4-4-4-4-4-4-4-4-4-4-4-4-4-4-4-4-| 
A|-1-1-1-1-1-1-1-1-1-1-1-1-1-1-1-1-4-4-4-4-4-4-4-4-4-4-4-4-4-4-4-4-| 
D|-1-1-1-1-1-1-1-1-1-1-1-1-1-1-1-1-4-4-4-4-4-4-4-4-4-4-4-4-4-4-4-4-| 
   x x x x x x x x x x x x         x x x x x x x x x x x x 

e|-----------------------------------------------------------------| 
B|-----------------------------------------------------------------| 
G|-----------------------------------------------------------------| 
D|-9-9-9-9-9-9-9-9-9-9-9-9-9-9-9-9-9-9-9-9-9-9-9-9-9-9-9-9-9-9-9-9-| 
A|-9-9-9-9-9-9-9-9-9-9-9-9-9-9-9-9-9-9-9-9-9-9-9-9-9-9-9-9-9-9-9-9-| 
D|-9-9-9-9-9-9-9-9-9-9-9-9-9-9-9-9-9-9-9-9-9-9-9-9-9-9-9-9-9-9-9-9-| 
   x x x x x x x x x x x x         x x x x x x x x x x x x 

     play this at the end of the 2nd time, just before the Chorus 
e|------------------------------------------------------------------------| 
B|------------------------------------------------------------------------| 
G|------------------------------------------------------------------------| 
D|-9-9-9-9-9-9-9-9-9-9-9-9-9-9-9-9-9-9-9-9-9-9-9-9-9-9-9-9-9-9-9-9-11-----| 
A|-9-9-9-9-9-9-9-9-9-9-9-9-9-9-9-9-9-9-9-9-9-9-9-9-9-9-9-9-9-9-9-9-11-----| 
D|-9-9-9-9-9-9-9-9-9-9-9-9-9-9-9-9-9-9-9-9-9-9-9-9-9-9-9-9-9-9-9-9-11-----| 
   x x x x x x x x x x x x         x x x x x x x x x x x x 

Chorus: play once 

e|-----------------------------------------------------------------------------------| 
B|-----------------------------------------------------------------------------------| 
G|-----------------------------------------------------------------------------------| 
D|-9-9-9-9-9-9-9-9-9-9-9-9-9-9-9-9/11-11-11-11-11-11-11-11-11-11-11-11-11-11-11-11---| 
A|-9-9-9-9-9-9-9-9-9-9-9-9-9-9-9-9/11-11-11-11-11-11-11-11-11-11-11-11-11-11-11-11---| 
D|-9-9-9-9-9-9-9-9-9-9-9-9-9-9-9-9/11-11-11-11-11-11-11-11-11-11-11-11-11-11-11-11---| 

e|---------------------------------------------| 
B|---------------------------------------------| 
G|---------------------------------------------| 
D|-1-1----1-1----4-4-3-3-1-1----1-1----4-4-3-3-| 
A|-1-1----1-1----4-4-3-3-1-1----1-1----4-4-3-3-| 
D|-1-1----1-1----4-4-3-3-1-1----1-1----4-4-3-3-| 

e|-----------------------------------------------------------------------------------| 
B|-----------------------------------------------------------------------------------| 
G|-----------------------------------------------------------------------------------| 
D|-9-9-9-9-9-9-9-9-9-9-9-9-9-9-9-9/11-11-11-11-11-11-11-11-11-11-11-11-11-11-11-11---| 
A|-9-9-9-9-9-9-9-9-9-9-9-9-9-9-9-9/11-11-11-11-11-11-11-11-11-11-11-11-11-11-11-11---| 
D|-9-9-9-9-9-9-9-9-9-9-9-9-9-9-9-9/11-11-11-11-11-11-11-11-11-11-11-11-11-11-11-11---| 

verse 2: play 3 times 

e|-------------------------------------------------------------------| 
B|-------------------------------------------------------------------| 
G|-------------------------------------------------------------------| 
D|-1-1-1-1-1-1-1-1-1-1-1-1-1-1-1-1-1-1-1-1-1-1-1-1-1-1----1----1-----| 
A|-1-1-1-1-1-1-1-1-1-1-1-1-1-1-1-1-1-1-1-1-1-1-1-1-1-1----1----1-----| 
D|-1-1-1-1-1-1-1-1-1-1-1-1-1-1-1-1-1-1-1-1-1-1-1-1-1-1----1----1-----| 
   x x x x x x x x x x x x x x x x x x x x x x x x x 

e|---------------------------------| 
B|---------------------------------| 
G|---------------------------------| 
D|-4-4-4-4-4-4-4-4-4-4-4-4-4-4-4-4-| 
A|-4-4-4-4-4-4-4-4-4-4-4-4-4-4-4-4-| 
D|-4-4-4-4-4-4-4-4-4-4-4-4-4-4-4-4-| 
   x x x x x x x x x x x x 


e|-----------------------------------------------------------------| 
B|-----------------------------------------------------------------| 
G|-----------------------------------------------------------------| 
D|-9-9-9-9-9-9-9-9-9-9-9-9-9-9-9-9-9-9-9-9-9-9-9-9-9-9-9-9-9-9-9-9-| 
A|-9-9-9-9-9-9-9-9-9-9-9-9-9-9-9-9-9-9-9-9-9-9-9-9-9-9-9-9-9-9-9-9-| 
D|-9-9-9-9-9-9-9-9-9-9-9-9-9-9-9-9-9-9-9-9-9-9-9-9-9-9-9-9-9-9-9-9-| 
   x x x x x x x x x x x x         x x x x x x x x x x x x 


                          play this the third time 
e|---------------------------------------------------------------------------------| 
B|---------------------------------------------------------------------------------| 
G|---------------------------------------------------------------------------------| 
D|-1--1----1--1-----1---1---1-----1--1--1--4--4----4--4-----4---4---4-----4--4--4--| 
A|-1--1----1--1-----1---1---1-----1--1--1--4--4----4--4-----4---4---4-----4--4--4--| 
D|-1--1----1--1-----1---1---1-----1--1--1--4--4----4--4-----4---4---4-----4--4--4--| 

e|---------------------------------------------------------------------------------------| 
B|---------------------------------------------------------------------------------------| 
G|---------------------------------------------------------------------------------------| 
D|-9--9----9--9-----9---9---9-----9--9--9--9--9----9--9-----9---9---9-----9--9--9--11----| 
A|-9--9----9--9-----9---9---9-----9--9--9--9--9----9--9-----9---9---9-----9--9--9--11----| 
D|-9--9----9--9-----9---9---9-----9--9--9--9--9----9--9-----9---9---9-----9--9--9--11----| 

Chorus: play 3 times 


Bridge: play 3 times 
e|----------------------------------------------------------------------------| 
B|----------------------------------------------------------------------------| 
G|----------------------------------------------------------------------------| 
D|-1----------9----8---9---9----8---9---11----8---11---11----8---11----1------| 
A|-1----------9----8---9---9----8---9---11----8---11---11----8---11----1------| 
D|-1----------9----8---9---9----8---9---11----8---11---11----8---11----1------| 


play this at the end of the 3rd time 
e|-----------------------------| 
B|-----------------------------| 
G|-----------------------------| 
D|-1-1-1-1-1-1-1-1-1-1-1-1-1---| 
A|-1-1-1-1-1-1-1-1-1-1-1-1-1---| 
E|-1-1-1-1-1-1-1-1-1-1-1-1-1---| 
   x x x x x x x x x x x x x 

play chours until end note 

(End Note) 
e|-----------| 
B|-----------| 
G|-----------| 
D|-1---------| 
A|-1---------| 
E|-1---------| 


************************************ 

| /   slide up 
| \   slide down 
| h   hammer-on 
| p   pull-off 
| ~   vibrato 
| +   harmonic 
| x   Mute note 
| b   Bend 
| pb  Pre-bend 
| br  Bend release 
| pbr Pre-bend release 
| brb Bend release bend 

************************************ 

roll up this ad to continue

share this page

See Also: