E-Chords
Pillows

Last Dinosaur(Tabs)

Pillows

Last Dinosaur 
Pillows          tabbed by: Weezer Pillows 
 
STANDARD TUNING 
 
Intro and Chorus gtr. 1 
|----0---0----0---0-0------0---0----0---0-0---| 
|------3--------3------------3--------3-------| 
|--2--------2------------0--------0-----------| 
|---------------------------------------------| 
|---------------------------------------------| 
|---------------------------------------------| 
 
Intro and Chorus gtr. 2 
|-----|  |-----| 
|-----|  |-----| 
|-----|  |-----| 
|--3--|  |--5--| 
|--3--|  |--5--| 
|--1--|  |--3--| 
These 2 chords are played in order through this part. 
 
Verse  
|-----|  |-----| 
|-----|  |-----| 
|-----|  |-----| 
|--5--|  |--3--| 
|--5--|  |--3--| 
|--3--|  |--1--| 
These 2 chords are played in order through this part. 
 
sry, i don't have the solo yet. 
 
End Note 
|------| 
|------| 
|--5~--| 
|--5~--| 
|--3~--| 
|------| 
 
~ - let ring 
 
That's all Folks!

roll up this ad to continue

share this page

See Also: