Pennywise

Alien (ver. 2)(Tabs)

Pennywise

roll up this ad to continue

	        INTRO x3: 
G|-----------------------------------------------------------| 
D|-----------------------------------------------------------| 
A|----------------6-6-6-6-6-6-6-6----------------------------| 
E|3-3-3-3-3-3-3-3--------------------------------------------| 
 
VERSE: 
G|-----------------------------------------------------------| 
D|-----------------------------------------------------------| 
A|-------5-5-5-5-6-6-6-6-------------------------------------| 
E|3-3-3-3---------------6-6-6-6------------------------------| 
 
Play this on the second time of the VERSE: 
G|-----------------------------------------------------------| 
D|-----------------------------------------------------------| 
A|--------5-5-5-5--6-6-6-6---5-6-5---------------------------| 
E|3-3-3-3------------------6---------------------------------| 
 
Then do the first part of the VERSE again 2 more times. 
When singing starts (Everydayy convince myself...) u don't play. 
After that play the VERSE 3 more times (including variation). 
 
Chorus x3: 
G|-----------------------------------------------------------| 
D|--------------8-8-8-8-8-8-8--------------------------------| 
A|6-6-6-6-6-6-6---------------5-5-5-5-5-5-5------------------| 
E|------------------------------------------3-3-3-3-3-3-3----| 
 
Then play the VERSE 3 times (including variation). 
Then do the Chorus again. 
Then keep playin the INTRO about 9 times. 
Then play the ENTIRE VERSE. 
Then play the Chorus again. 
Then play the VERSE 3 more times (with variation) 
Then play the INTRO till u finish. 
 
 

	        

See Also: