E-Chords
Old Gray

The Artist(Tabs)

Old Gray

roll up this ad to continue

IF SOMETHING INN THE PAST CAN CHANGE ME 
bend the 4* literally like 1/8 to get   the dissonance 
e|-----------------------------------------------|---------------------------------| 
B|---------------------------------5p3----1/3-0--|-----------------------------0---| 
G|---------7p0-------0-------0----------0--------|--------7p0-------0----------4*--| x2 
D|-----5---------7/9-----------------------------|----5---------7/9--------2---2---| 
A|-------7-----7--------3-------3----------------|------7-----7--------3-----3-3---| 
E|-0---------------------------------------------|-0-------------------------------| 


second time around play the last chord just once     MY HEART........   STOPPED 
e|-------------------------------------------------------| 
B|---------3p0-----------5p0----------8p0----------7-7---| 
G|-------------------------------------------------0-0---| 
D|-----2-----------4---4------------5--------4---4-x-x---| 
A|-2/3---3-----3/5---5--------5-5/7--------5---5---5-5---| 
E|-------------------------------------------------------| 


RAH RAH RAHRAH RAH RAH DEVOTION EAUUGH 
jam on these chords, they correspond to the riff above 
e|---------------------------| 
B|-3----5-----8----7---------| 
G|-0----0-----0----0---------| 
D|-2----4-----5----4---------| 
A|-3----5-----7----5---------| 
E|---------------------------| 

e|------------------0------------------------------------| 
B|--------3-----------3-------------3--------------------| 
G|------4---------4-----4---------4---------4--5-4-0-----| 
D|----2---------2---------------2---------2--------------| 
A|--3---------3---------------3---------3----------------| 
E|-------------------------------------------------------| 

THAT FEELS SINCERE! THAT FEELS SINCERE 
e|------------|---------------------------------------------| 
B|------------|------3-3-3--3-3-3--3-3-3--5-5-5-5-5---------| 
G|--4-4-4-4---|------4-4-4--4-4-4--4-4-4--4-4-4-4-4---------| 
D|--2-2-2-2---|-x2---2-2-2--2-2-2--2-2-2--4-4-4-4-4---------| 
A|--3-3-3-3---|------3-3-3--3-3-3--3-3-3--5-5-5-5-5---------| 
E|------------|---------------------------------------------| 
    * * * * 

e|---------------------------------------3-2-------------3-2---5------| 
B|--3-3-3----------3-3-3----------3-3-3------3-0--3-3-3------5---5----| 
G|--4-4-4--WHOAAA--4-4-4--YEAAL---4-4-4-----------4-4-4---------------| 
D|--2-2-2----------2-2-2----------2-2-2-----------2-2-2---------------| 
A|--3-3-3----------3-3-3----------3-3-3-----------3-3-3---------------| 
E|--------------------------------------------------------------------| 

then play that second last bar thing until the end. 

YEA 
share this page

See Also: