Oficina G3

Perfeita União(Tabs)

Oficina G3

Key: Em

roll up this ad to continue

	        Intro: Em C D Bm C Am D - 2X 
       Em D Bm C Em D C D 
 
Dedilhado (Acústico, sem distorção) 
Obs.:Esse dedilhado é para introducão, quando ele comeca cantar muda um pouco 
     Esse Bm6 é igual a um G/B 
 
    Em     C       D4 D      Bm6     C      A       D 
e --3------3-------3--2----------3---------0--------------2h3p2-0------- 
B ----0------0----------3----3--------------------1-----3---------3-3--- 
G ------0------0---------------0---------0------2-----2----------------- 
D --2--------------0--0----------------2------2-----0------------------- 
A ---------3-----------------2-------3------0--------------------------- 
E ---------------------------------------------------------------------- 
 
Obs.: Esse é quando começa a cantar 
 
    Em     C       D        Bm      C      A       D 
e --3------3-------3-2----------3---------0--------------2------------- 
B ----0------0---------3----3--------------------1-----3---3----------- 
G ------0------0--------------0---------0------2-----2-------2---------- 
D --2--------------0-0----------------2------2-----0------------------- 
A ---------3----------------2-------3------0--------------------------- 
E --------------------------------------------------------------------- 
 
Obs.: Esse é feito na introdução e durante a musica (Com Distorção) 
      Na verdade esse Bm na parte com distorção, é G/B em nota de rock 
 
   Em     D      Bm    C           Em   D      C      D         -> Depois volta para o Em 
e ------------------------------------------------------------------ 
B ------------------------------------------------------------------ 
G ------------------------------------------------------------------ 
D -9-9-9--5-5-5--5-5-5-5----------------5-5-5--3-3-3--7------------- 
A -7-7-7--7-7-7--2-2-2-3-3-2-------2-2--7-7-7--5-5-5--5--5-5-5------ 
E ---------------------------3-2-3-0-0--------------------7-7------- 
 
 
Solo (2'50'' - 3'25'') - Em C D Bm C Am D - 2X 
    
e ----------------------------------------------------------------------- 
B ------------------------12h13p12-----15------------------12h13h15-15-13 
G --------12h14-14b-12h14----------14b----14b-11-----12h14--------------- 
D -12/14~-----------------------------------------12--------------------- 
A ----------------------------------------------------------------------- 
E ----------------------------------------------------------------------- 
 
e ----------------------------------------------------------------------- 
B 12h13p12-----12h13p12-13-15-13-12h13p12---------------12h13h15b-------- 
G ---------14------------------------------14-12--12h14------------14~--- 
D ----------------------------------------------------------------------- 
A ----------------------------------------------------------------------- 
E ----------------------------------------------------------------------- 
 
e --------------------------------------------------15-14-12------------- 
B -12h13h15-15b-15b-15b-----15----15-----15------------------15-13-12---- 
G ----------------------14b---14b~---14b----14-12-----12-12-12-12-12----- 
D ----------------------------------------------------------------------- 
A ----------------------------------------------------------------------- 
E ----------------------------------------------------------------------- 
 
e ----------------------------------------------------------------------- 
B -------------------12h13h15b-13p12-------15b-12-15b-17-17-17-17~~~~~---- 
G -------------12h14-----------------14-12-------------------------------- 
D -------12h14----------------------------------------------------------- 
A -12h14----------------------------------------------------------------- 
E ----------------------------------------------------------------------- 
 
Em C D Bm C Am D 
 
 
Em D Bm C Em D C D 
 
 
FINAL: G F# D B Em
	        

Written by José Afram Junior

See Also: