Nirvana

Habanera Jam(Tabs)

Nirvana

roll up this ad to continue

	        E|--------------------------------| 
B|--------------------------------| 
G|--------------------------------| 
D|-----2-----------2-2------------| (x2) 
A|---2---2-------2-----2----------| 
E|-0-------0-------------0--------| 

E|----------------------------------------------| 
B|-9-8-7-6----9-8-7-6-5-4----9-8-7-6-555-4-3-2--| 
G|----------------------------------------------| 
D|----------------------------------------------| 
A|----------------------------------------------| 
E|----------------------------------------------|
	        

See Also: