E-Chords
Niccokick

I Want You Back(Tabs)

Niccokick

roll up this ad to continue

Tuning: 

1.a 

e|---------------------------------------------------------------------------| 
B|------------0--------------0-----------1---0-------------------------------| 
G|----------------0--------------0---------------2---0-----------------------| 
D|--------0--------------0-------------------------------0-------------------| 
A|---------------------------------------------------------------------------| 
E|----3---------------3--------------3---------------------------------------| 

1.b 

e|---------------------------------------------------------------------------| 
B|-------------0---------------0-----------0----0---0------------------------| 
G|---------0-------0-------0-------0--------------------2---0----------------| 
D|-----2---------------2---------------2------------------------2------------| 
A|---------------------------------------------------------------------------| 
E|---------------------------------------------------------------------------| 

1.c 

e|---------------------------------------------------------------------------| 
B|----------0---------------0------------------------------------------------| 
G|--------------0---------------0---2---2---4---2---0-------0----------------| 
D|------2---------------2-------------------------------2--------------------| 
A|--3---------------3--------------------------------------------------------| 
E|---------------------------------------------------------------------------| 
1.d 

e|-----------------------------------------------------------------------------| 
B|----------0-------------------------------------0----------------------------| 
G|--------------0---------------0---------------------0------------0-----------| 
D|------0---------------0---------------------0-------------0------------------| 
A|-----------------------------------------------------------------------------| 
E|--3--------------3--------0-------------3--------------3-----0---------------| 
                                                                     X2 
                                         After this  came 1.a , 1.b and 1.c 


2.a 

e|--7----7--7--8-7---5---3---5---7---7-7--8--7--5--3--5----------------------| 
B|----------------------------------------------------------5----------------| 
G|---------------------------------------------------------------------------| 
D|---------------------------------------------------------------------------| 
A|---------------------------------------------------------------------------| 
E|---------------------------------------------------------------------------| 

2.b 

e|---------------------------------------------------------------------------| 
B|------5----12----10----13----12-----8--------------------------------------| 
G|---------------------------------------------------------------------------| 
D|---------------------------------------------------------------------------| 
A|---------------------------------------------------------------------------| 
E|---------------------------------------------------------------------------| 
      After this 
      1a,b,c,d and 1a,b,c 
 3.a                           /              p 
e|---7---5--8--7---7---5--8-7--5--7----3---3---5---3-----7-------------------| 
B|---------------------------------------------------------------------------| 
G|---------------------------------------------------------------------------| 
D|---------------------------------------------------------------------------| 
A|---------------------------------------------------------------------------| 
E|---------------------------------------------------------------------------| 

e|---------------------------------------------------------------------------| 
B|---------------------------------------------------------------------------| 
G|---------------------------------------------------------------------------| 
D|---------------------------------------------------------------------------| 
A|---------------------------------------------------------------------------| 
E|---------------------------------------------------------------------------| 


| /  slide up 
|   slide down 
| h  hammer-on 
| p  pull-off 
| ~  vibrato 
| +  harmonic 
| x  Mute note 
share this page

See Also: