E-Chords
Nerf Herder

Buffy Theme (tab p/ baixo)(Tabs)

Nerf Herder

roll up this ad to continue

 
Crifra de baixo do tema da série Buffy, A caça vampiros 
 
Buffy theme 
 
E|--------------------------------------------------------------------- 
B|--------------------------------------------------------------------- 
G|---------------------------------2-2-2-2-2-2-2-2-5-5-5-5-5-5-5-5----- 
D|-0-0-0-0-0-0-0-0-3-3-3-3-3-3-3-3------------------------------------- 
 
E|--------------------------------------------------------------------- 
B|--------------------------------------------------------------------- 
G|---------------------------------2-2-2-2-2-2-2-2-5-5-5-5-5-5-5-5----- 
D|-0-0-0-0-0-0-0-0-3-3-3-3-3-3-3-3------------------------------------- 
 
This line is the correction | 
                             v 
E|----2--p0---0-2-0------0-2-0----------------------------------------- 
B|----------2----------2-------2--------------------------------------- 
G|-0------------------------------2--2--2--2--------------------------- 
D|-------------------0------------------------------------------------- 
 
 
E---------------------------------------------------------------------- 
B---------------------------------------------------------------------- 
G----------------------------------2-2-2-2-2-2-2-2-5-5-5-5-5-5-5-5-6-6- 
D--0-0-0-0-0-0-0-0-3-3-3-3-3-3-3-3------------------------------------- 
 
E|--------------------------------------- 
B|--------------------------------------- 
G|-6-6-6-6-6-6--------------------------- 
D|---------------0---0---0--------------- 
 
 
_______________________________________________________ 
Contribuição: ([email protected]) 
share this page

See Also: