My Chemical Romance

To The End(Tabs)

My Chemical Romance

roll up this ad to continue

	        intro/verse: {x4} 
E|-5-5---5-5-5---5-5-5---5-5-5---5-5-5---5-3-3---3-5-5---5-3-3------|| 
B|-6-6---6-5-5---5-6-6---6-5-5---5-4-4---4-4-4---4-4-4---4-4-4------|| 
G|-7-7---7-7-7---7-7-7---7-7-7---7-5-5---5-5-5---5-5-5---5-5-5------|| 
D|-0-0---0-0-0---0-0-0---0-0-0---0----------------------------------|| 
A|------------------------------------------------------------------|| 
E|------------------------------------------------------------------|| 
 
Chorus: 
E|-6--1--3---6--6-6--6-6--6-6-6---1---1-1---1-1---1-1-1-------------|| 
B|-6--1--3---6--6-6--6-6--6-6-6---1---1-1---1-1---1-1-1-------------|| 
G|-7--2--4---7--7-7--7-7--7-7-7---2---2-2---2-2---2-2-2-------------|| 
D|-8--3--5---8--8-8--8-8--8-8-8---3---3-3---3-3---3-3-3-------------|| 
A|-8--3--5---8--8-8--8-8--8-8-8---3---3-3---3-3---3-3-3-------------|| 
E|-6--1--3---6--6-6--6-6--6-6-6---1---1-1---1-1---1-1-1-------------|| 
 
E|--3---3-3---3-3---3-3-3---6--6-6--6-6-----------------------------|| 
B|--3---3-3---3-3---3-3-3---6--6-6--6-6-----------------------------|| 
G|--4---4-4---4-4---4-4-4---7--7-7--7-7-----------------------------|| 
D|--5---5-5---5-5---5-5-5---8--8-8--8-8-----------------------------|| 
A|--5---5-5---5-5---5-5-5---8--8-8--8-8-----------------------------|| 
E|--3---3-3---3-3---3-3-3---6--6-6--6-6-----------------------------|| 
 
then you play the intro/verse again: {x4} 
E|-5-5---5-5-5---5-5-5---5-5-5---5-5-5---5-3-3---3-5-5---5-3-3------|| 
B|-6-6---6-5-5---5-6-6---6-5-5---5-4-4---4-4-4---4-4-4---4-4-4------|| 
G|-7-7---7-7-7---7-7-7---7-7-7---7-5-5---5-5-5---5-5-5---5-5-5------|| 
D|-0-0---0-0-0---0-0-0---0-0-0---0----------------------------------|| 
A|------------------------------------------------------------------|| 
E|------------------------------------------------------------------|| 
 
Chorus again: {x2} except this Chorus is a bit different then the 1st 
E|-6--1--3---6--6-6--6-6--6-6-6---3---3-3---3-3---3-3-3-------------|| 
B|-6--1--3---6--6-6--6-6--6-6-6---3---3-3---3-3---3-3-3-------------|| 
G|-7--2--4---7--7-7--7-7--7-7-7---4---4-4---4-4---4-4-4-------------|| 
D|-8--3--5---8--8-8--8-8--8-8-8---5---5-5---5-5---5-5-5-------------|| 
A|-8--3--5---8--8-8--8-8--8-8-8---5---5-5---5-5---5-5-5-------------|| 
E|-6--1--3---6--6-6--6-6--6-6-6---3---3-3---3-3---3-3-3-------------|| 
 
E|-6-6-6-6-6-6-6-6-6-6-6-6-6-6-6-6--7-7-7-7-7-7-7-7-7-7-7-7-7-7-7-7-|| 
B|-6-6-6-6-6-6-6-6-6-6-6-6-6-6-6-6--7-7-7-7-7-7-7-7-7-7-7-7-7-7-7-7-|| 
G|-7-7-7-7-7-7-7-7-7-7-7-7-7-7-7-7--8-8-8-8-8-8-8-8-8-8-8-8-8-8-8-8-|| 
D|-8-8-8-8-8-8-8-8-8-8-8-8-8-8-8-8--9-9-9-9-9-9-9-9-9-9-9-9-9-9-9-9-|| 
A|-8-8-8-8-8-8-8-8-8-8-8-8-8-8-8-8--9-9-9-9-9-9-9-9-9-9-9-9-9-9-9-9-|| 
E|-6-6-6-6-6-6-6-6-6-6-6-6-6-6-6-6--7-7-7-7-7-7-7-7-7-7-7-7-7-7-7-7-|| 
 
 
solo: 
E|----------------------------------------------------------------|| 
B|----------------------------------------------------------------|| 
G|-------------------------12----------12-14-------12-14-15-12-14-|| 
D|-12-14-15-15-12-14-15-15----14-15-15-------15-15----------------|| 
A|----------------------------------------------------------------|| 
E|----------------------------------------------------------------|| 
 
E|----------------------------------------------------------------|| 
B|----------------------------------------------------------------|| 
G|----12-14-------------------------------------------------------|| 
D|-15-------------12--------------------12-14-15-15-12-14-15-15---|| 
A|----------15-15----13-15-12----12-------------------------------|| 
E|----------------------------15----13~---------------------------|| 
 
E|----------------------------------------------------------------|| 
B|----------------------------------------------------------------|| 
G|-12----------12-14-------12-14-15-12-14----12-14-15-15-12-14----|| 
D|----14-15-15-------15-15----------------15----------------------|| 
A|----------------------------------------------------------------|| 
E|----------------------------------------------------------------|| 
 
E|----------------------------------------------------------------|| 
B|----------------------------------------------------------------|| 
G|-12-14-12-14----12~---------------------------------------------|| 
D|-------------15-------------------------------------------------|| 
A|----------------------------------------------------------------|| 
E|----------------------------------------------------------------|| 
 
Chorus again: {x4} 
E|-6--1--3---6--6-6--6-6--6-6-6---3---3-3---3-3---3-3-3-------------|| 
B|-6--1--3---6--6-6--6-6--6-6-6---3---3-3---3-3---3-3-3-------------|| 
G|-7--2--4---7--7-7--7-7--7-7-7---4---4-4---4-4---4-4-4-------------|| 
D|-8--3--5---8--8-8--8-8--8-8-8---5---5-5---5-5---5-5-5-------------|| 
A|-8--3--5---8--8-8--8-8--8-8-8---5---5-5---5-5---5-5-5-------------|| 
E|-6--1--3---6--6-6--6-6--6-6-6---3---3-3---3-3---3-3-3-------------|| 
 
E|-6-6-6-6-6-6-6-6-6-6-6-6-6-6-6-6--7-7-7-7-7-7-7-7-7-7-7-7-7-7-7-7-|| 
B|-6-6-6-6-6-6-6-6-6-6-6-6-6-6-6-6--7-7-7-7-7-7-7-7-7-7-7-7-7-7-7-7-|| 
G|-7-7-7-7-7-7-7-7-7-7-7-7-7-7-7-7--8-8-8-8-8-8-8-8-8-8-8-8-8-8-8-8-|| 
D|-8-8-8-8-8-8-8-8-8-8-8-8-8-8-8-8--9-9-9-9-9-9-9-9-9-9-9-9-9-9-9-9-|| 
A|-8-8-8-8-8-8-8-8-8-8-8-8-8-8-8-8--9-9-9-9-9-9-9-9-9-9-9-9-9-9-9-9-|| 
E|-6-6-6-6-6-6-6-6-6-6-6-6-6-6-6-6--7-7-7-7-7-7-7-7-7-7-7-7-7-7-7-7-|| 
 

	        

See Also: