E-Chords
Mortal Treason

Hidden Track (acoustic)(Tabs)

Mortal Treason

Key: D#

D#|------------0--------------------------0---------------------------------------0------------------------| 
A#|---3-----------3----3----------5---------5-----5------------7----------8---------8------7-------0-------| 
F#|------0----------0----0-----------0---------0----0-------------0----------0----------------0------------| 
C#|--------2---------------------------4----------------------------5----------5----------------5----------| x2 
G#|---3---------------------------5----------------------------7----------7----------------7-------7-------| 
D#|--------------------------------------------------------------------------------------------------------| 

D#|---0-0-0-0-0-0-0/0-0-0-0-0-0-0--0-0-0-0-0/0-0-0-0-0-0-0/0-0-0-0-0--7-7-7-7-7-7-7------------------------| 
A#|---3-3-3-3-3-3-3/5-5-5-5-5-5-5--7-7-7-7-7/8-8-8-8-8-8-8/7-7-7-7-7--0-0-0-0-0-0-0------------------------| 
F#|---0-0-0-0-0-0-0/0-0-0-0-0-0-0--0-0-0-0-0/0-0-0-0-0-0-0/0-0-0-0-0--5-5-5-5-5-5-5------------------------| 
C#|---2-2-2-2-2-2-2/4-4-4-4-4-4-4--5-5-5-5-5/5-5-5-5-5-5-5/5-5-5-5-5--5-5-5-5-5-5-5------------------------| 
G#|---3-3-3-3-3-3-3/5-5-5-5-5-5-5--7-7-7-7-7/7-7-7-7-7-7-7/7-7-7-7-7--7-7-7-7-7-7-7------------------------| 
D#|--------------------------------------------------------------------------------------------------------| 

Show me your ways,teach me to love. This world can be so cold, it's hard to find one who cares 
D#|---0-0-0-0-0-0-0/0-0-0-0-0-0-0--0-0-0-0-0/0-0-0-0-0-0-0/0-0-0-0-0--7-7-7-7-7-7-7-------------------------| 
A#|---3-3-3-3-3-3-3/5-5-5-5-5-5-5--7-7-7-7-7/8-8-8-8-8-8-8/7-7-7-7-7--0-0-0-0-0-0-0-------------------------| 
F#|---0-0-0-0-0-0-0/0-0-0-0-0-0-0--0-0-0-0-0/0-0-0-0-0-0-0/0-0-0-0-0--5-5-5-5-5-5-5-------------------------| 
C#|---2-2-2-2-2-2-2/4-4-4-4-4-4-4--5-5-5-5-5/5-5-5-5-5-5-5/5-5-5-5-5--5-5-5-5-5-5-5-------------------------|x2 
G#|---3-3-3-3-3-3-3/5-5-5-5-5-5-5--7-7-7-7-7/7-7-7-7-7-7-7/7-7-7-7-7--7-7-7-7-7-7-7-------------------------| 
D#|---------------------------------------------------------------------------------------------------------| 

Show me your'e there, show me you care 
D#|---0-0-0-0-0-0-0/0-0-0-0--0--0---------------------------------------------------------------------------| 
A#|---3-3-3-3-3-3-3/5-5-5-5--3--0---------------------------------------------------------------------------| 
F#|---0-0-0-0-0-0-0/0-0-0-0--0--2---------------------------------------------------------------------------| 
C#|---2-2-2-2-2-2-2/4-4-4-4--2--2---------------------------------------------------------------------------| 
G#|---3-3-3-3-3-3-3/5-5-5-5--3--0---------------------------------------------------------------------------| 
D#|---------------------------------------------------------------------------------------------------------| 
    
...wipe my tears away,take my pain 
D#|---0-0-0-0-0--0-0-0-0-0--0-0-0-0-0-----------------------------------------------------------------------| 
A#|---0-0-0-0-0--2-2-2-2-2--0-0-0-0-0-----------------------------------------------------------------------| 
F#|---0-0-0-0-0--2-2-2-2-2--2-2-2-2-2-----------------------------------------------------------------------| 
C#|---2-2-2-2-2--0-0-0-0-0--2-2-2-2-2-----------------------------------------------------------------------|x2 
G#|---3-3-3-3-3--0-0-0-0-0--0-0-0-0-0-----------------------------------------------------------------------| 
D#|---------------------------------------------------------------------------------------------------------| 

Talking part 
D#|---0-0-0-0-0--0-0-0-0-0--0--0--0--0--0---0-0-0-0-0-------------------------------------------------------| 
A#|---7-7-7-7-7--8-8-8-8-8--10-10-10-10-10--0-0-0-0-0-------------------------------------------------------| 
F#|---0-0-0-0-0--0-0-0-0-0--0--0--0--0--0---2-2-2-2-2-------------------------------------------------------| 
C#|---4-4-4-4-4--5-5-5-5-5--7--7--7--7--7---3-3-3-3-3-------------------------------------------------------|x2 
G#|---5-5-5-5-5--7-7-7-7-7--9--9--9--9--9---0-0-0-0-0-------------------------------------------------------| 
D#|---------------------------------------------------------------------------------------------------------| 

D#|---0-0-0-0-0--0-0-0-0-0--0/0--0--0--0---0--0---0---0-0-0-0-0--0~~--0~~~~---------------------------------| 
A#|---3-3-3-3-3--3-3-3-3-3--3/10-10-10-10--8--8---7---5-5-5-5-5--3~~--3~~~~---------------------------------| 
F#|---0-0-0-0-0--0-0-0-0-0--0/0--0--0--0---0--0---0---0-0-0-0-0--0~~--0~~~~---------------------------------| 
C#|---0-0-0-0-0--0-0-0-0-0--2/9--9--9--9---9--9---9---0-0-0-0-0--0~~--0~~~~---------------------------------| 
G#|---3-3-3-3-3--2-2-2-2-2--3/10-10-10-10--10-10--10--4-4-4-4-4--3~~--2~~~~---------------------------------| 
D#|---------------------------------------------------------------------------------------------------------| 

All credit to SPOOK0991 on Youtube. This is his work, just tabbed out for practice. 
If you have any trouble with progressions or fingerings,watch his tutorial,he does a great job. 

************************************ 

| /   slide up 
| ~   hold note 

************************************ 

roll up this ad to continue

share this page

See Also: