E-Chords
Minor Alps

If I Wanted Trouble(Tabs)

Minor Alps

roll up this ad to continue

Key: D
'If I wanted Trouble' 

Tuning: DROP D 

Intro and verses: 
E|-------------------------------------------------------------------| 
B|-------------------------------------------------------------------| 
G|-------------------------------------------------------------------| 
D|---4--5---7---9---7---5-5-7-5p4--4---4---4--4---4------------------| 
A|-------------------------------------------------------------------| 
D|-0--0---0---0---0---0--0-0--0--0---0---0---0--0--------------------| 
Repeat until Chorus (also listen for timings, it's easy once you hear it. 




Chorus: 

       If I wanted trouble, 
E|---2--2--2--2--2---------------------------------------------------| 
B|---3--3--3--3--3---------------------------------------------------| 
G|---2--2--2--2--2--999999-------------------------------------------| 
D|---0--0--0--0--0--777777-------------------------------------------| 
A|--(0)(0)(0)(0)(0)-777777-------------------------------------------| 
D|--(0)(0)(0)(0)(0)-777777-------------------------------------------| 

   I could get it. 
E|-------------------------------------------------------------------| 
B|-------------------------------------------------------------------| 
G|-99999---777777----------------------------------------------------| 
D|-77777---555555----------------------------------------------------| 
A|-77777---555555----------------------------------------------------| 
D|-77777---555555----------------------------------------------------| 

       If I wanted trouble, 
E|---2--2--2--2--2---------------------------------------------------| 
B|---3--3--3--3--3---------------------------------------------------| 
G|---2--2--2--2--2--999999-------------------------------------------| 
D|---0--0--0--0--0--777777-------------------------------------------| 
A|--(0)(0)(0)(0)(0)-777777-------------------------------------------| 
D|--(0)(0)(0)(0)(0)-777777-------------------------------------------| 

   I could find it. 
E|-------------------------------------------------------------------| 
B|-------------------------------------------------------------------| 
G|-99999---777777----------------------------------------------------| 
D|-77777---555555----------------------------------------------------| 
A|-77777---555555----------------------------------------------------| 
D|-77777---555555----------------------------------------------------| 

Repeat until second Verse: 


Second Verse: 

E|-------------------------------------------------------------------| 
B|-------------------------------------------------------------------| 
G|-------------------------------------------------------------------| 
D|---4--5---7---9---7---5-5-7-5p4--4---4---4--4---4------------------| 
A|-------------------------------------------------------------------| 
D|-0--0---0---0---0---0--0-0--0--0---0---0---0--0--------------------| 
Repeat until second Chorus: 
Second Chorus: 

       If I wanted trouble, 
E|---2--2--2--2--2---------------------------------------------------| 
B|---3--3--3--3--3---------------------------------------------------| 
G|---2--2--2--2--2--999999-------------------------------------------| 
D|---0--0--0--0--0--777777-------------------------------------------| 
A|--(0)(0)(0)(0)(0)-777777-------------------------------------------| 
D|--(0)(0)(0)(0)(0)-777777-------------------------------------------| 

   I could get it. 
E|-------------------------------------------------------------------| 
B|-------------------------------------------------------------------| 
G|-99999---777777----------------------------------------------------| 
D|-77777---555555----------------------------------------------------| 
A|-77777---555555----------------------------------------------------| 
D|-77777---555555----------------------------------------------------| 

       If I wanted trouble, 
E|---2--2--2--2--2---------------------------------------------------| 
B|---3--3--3--3--3---------------------------------------------------| 
G|---2--2--2--2--2--999999-------------------------------------------| 
D|---0--0--0--0--0--777777-------------------------------------------| 
A|--(0)(0)(0)(0)(0)-777777-------------------------------------------| 
D|--(0)(0)(0)(0)(0)-777777-------------------------------------------| 

   I could find it. 
E|-------------------------------------------------------------------| 
B|-------------------------------------------------------------------| 
G|-99999---777777----------------------------------------------------| 
D|-77777---555555----------------------------------------------------| 
A|-77777---555555----------------------------------------------------| 
D|-77777---555555----------------------------------------------------| 

Outro: 


  If I wanted trouble,  I could find it, I could find it. 
E|-------------------------------------------------------2--2--2--2--| 
B|-------------------------------------------------------3--3--3--3--| 
G|-----99999999999999---777777777777777--44444444444444--2--2--2--2--| 
D|-----77777777777777---555555555555555--22222222222222--0--0--0--0--| 
A|-----77777777777777---555555555555555--22222222222222-(0)(0)(0)(0)-| 
D|-----77777777777777---555555555555555--22222222222222-(0)(0)(0)(0)-| 

  If I wanted trouble,  I could get it, I could get it. 
E|-------------------------------------------------------2--2--2--2--| 
B|-------------------------------------------------------3--3--3--3--| 
G|-----99999999999999---777777777777777--44444444444444--2--2--2--2--| 
D|-----77777777777777---555555555555555--22222222222222--0--0--0--0--| 
A|-----77777777777777---555555555555555--22222222222222-(0)(0)(0)(0)-| 
D|-----77777777777777---555555555555555--22222222222222-(0)(0)(0)(0)-| 


Repeat until end.  
share this page

See Also: