Mamonas Assassinas

Pelados em Santos(Tabs)

Mamonas Assassinas

Key: D

roll up this ad to continue

	        Base do Riff: D-Bm-G-A 
 
E|--2------3-2--------------2-3-2-------------------| 
B|----3-5------5-3-5-3-3--5-------5-3-5-3-----------| 
G|----------------------------------------4---------| 
D|--------------------------------------------------| 
A|--------------------------------------------------| 
E|--------------------------------------------------| 
 
E|--------------------------------------------------| 
B|--3-2--5-3-2-5-3-2-5--3/5\3-2/3\2-----------------| 
G|--------------------------------------------------| 
D|--------------------------------------------------| 
A|--------------------------------------------------| 
E|--------------------------------------------------| 

	        

Written by Dinho

See Also: