E-Chords
Los Hooligans

Al Final (Solo)(Tabs)

Los Hooligans

roll up this ad to continue

Key: C
Intro:                                                                 
              C            Em            F             G               
e ---------- -------0------------0-------------1-------------3-------  
B ---------- -----1---1--------0----0--------1----1--------3---3-----  
G.----------.---0-------0----0--------0----2--------2----4-------4---. 
D.----------.-2------------2-------------3-------------5-------------. 
A ------0-2- -3------------2-------------3-------------5-------------  
E --3-3----- --------------0-------------1-------------3-------------  
                                                                       
              C            Em            F             G               
              Ah...        Ah...         Ah...         ah...           


       C      Em 
Sobre un arcoiris  
  F             G    C 
tesoros tú hallarás... 



Solo de guitarra: 

       C      Em      F       G       C      Em      F       G       
e-------------------------5------------------------------5---------- 
B-------------8-5---5-6-8---6----------------8-5---5-6-8---6-------- 
G------5--5-5-----------------7-------5--5-5-----------------7------ 
D--5-5----------------------------5-5------------------------------- 
A------------------------------------------------------------------- 
E------------------------------------------------------------------- 
                                                                     
                                                                     
                                                                     
       C      Am      Dm     G           C             Am            F      G       
e--0-0-3////--7//-5////////--7//--8/-10/-12////-10/-8/-12////-10/-8/-12////-7////-- 
B---------------------------------------------------------------------------------- 
G---------------------------------------------------------------------------------- 
D---------------------------------------------------------------------------------- 
A---------------------------------------------------------------------------------- 
E---------------------------------------------------------------------------------- 
                                                                                    
                                                                                    
   C     Em    F     G                                                              
e--8////-7////-5////-7////--------------------------------------------------------- 
B---------------------------------------------------------------------------------- 
G---------------------------------------------------------------------------------- 
D---------------------------------------------------------------------------------- 
A---------------------------------------------------------------------------------- 
E---------------------------------------------------------------------------------- 
                                                                                    
   Ah    Ah    ah    ah                                                             



Final: 


...hasta el fi-i-in del so-o--ol. 
          G      C   Em F 
hasta el fin del sol 
          G       C   F  C   
hasta el fin del sol 
                                                    
     C                  F                  C        
e ----------0--3--5--7--8--10--11--10--8---8------- 
B -------1---------------------------------8------- 
G.-----0-----------------------------------9------- 
D.---2-------------------------------------10------ 
A ---3-------------------------------------10------ 
E -----------------------------------------8------- 
share this page

See Also: