E-Chords
Lari Basilio

Walking By Faith(Tabs)

Lari Basilio

roll up this ad to continue

Key: D
Afinação: D  A  D  G  B  E 

Riff - Parte 1 (3x): 

 
E|----------------------------------------------------| 
B|----------------------------------------------------| 
G|----------------------------------------------------| 
D|--------------3--------------3----------------------| 
A|----------3h5------------3h5------------------------| 
E|-0--0-5h7-------0--0-5h7----------------------------| 
 

 
E|----------------------------------------------------| 
B|----------------------------------------------------| 
G|----------------------------------------------------| 
D|--------------3-------------------------------------| 
A|----------3h5---5-3---3-2-0-------------------------| 
E|-0--0-5h7-----------x-------3-----------------------| 
 

Riff - Parte 2: 

 
E|----------------------------------------------------| 
B|----------------------------------------------------| 
G|----------------------------------------------------| 
D|--------------3--------------3----------------------| 
A|----------3h5------------3h5------------------------| 
E|-0--0-5h7-------0--0-5h7----------------------------| 
 

 
E|----------------------------------------------------| 
B|----------------------------------------------------| 
G|----------------------------------------------------| 
D|--------------3-------------------------------------| 
A|----------3h5---5-3---3-2-0-------------------------| 
E|-0--0-5h7-----------x-------5-----------------------| 
 

Solo: 

 
E|-----5-8-5-------------------7-10-7-----------------| 
B|---6-------6---8-6-5-------8--------8---10-8-7------| 
G|-5-----------5-------7-5-7------------7--------9-7/-| 
D|----------------------------------------------------| 
A|----------------------------------------------------| 
E|----------------------------------------------------| 
 

 
E|----------------------------------------------------| 
B|-------8--7-----------------------------------------| 
G|-9--7--------9--7-----------------------------------| 
D|----------------------------------------------------| 
A|----------------------------------------------------| 
E|----------------------------------------------------| 
 

 
E|-----5-8-5-------------------7-10-7-----------------| 
B|---6-------6---8-6-5-------8--------8---10-8-7------| 
G|-5-----------5-------7-5-7------------7--------9-7/-| 
D|----------------------------------------------------| 
A|----------------------------------------------------| 
E|----------------------------------------------------| 
 

 
E|----------------------------------------------------| 
B|----13----------------------------------------------| 
G|-10-------------------------------------------------| 
D|----------------------------------------------------| 
A|----------------------------------------------------| 
E|----------------------------------------------------| 
 

 
E|-----5-8-5-------7-10-7-----------------------------| 
B|---6-------6---8--------8---10-8-7------------------| 
G|-5-----------7------------7--------9-7/-------------| 
D|----------------------------------------------------| 
A|----------------------------------------------------| 
E|----------------------------------------------------| 
 

 
E|----------------------------------------------------| 
B|-------8--7-----------------------------------------| 
G|-9--7--------9--7-----------------------------------| 
D|----------------------------------------------------| 
A|----------------------------------------------------| 
E|----------------------------------------------------| 
 

 
E|-----5-8-5-------------------7-10-7-----------------| 
B|---6-------6---8-6-5-------8--------8---10-8-7------| 
G|-5-----------5-------7-5-7------------7--------9-7/-| 
D|----------------------------------------------------| 
A|----------------------------------------------------| 
E|----------------------------------------------------| 
 

 
E|----------------------------------------------------| 
B|----13----------------------------------------------| 
G|-10-------------------------------------------------| 
D|----------------------------------------------------| 
A|----------------------------------------------------| 
E|----------------------------------------------------| 
 

 
E|----------------------------------------------------| 
B|-12----------------------13-10----------------------| 
G|-------12-----------------------12-10---------------| 
D|-----------10---12--12------------------------------| 
A|----------------------------------------------------| 
E|----------------------------------------------------| 
share this page

See Also: