E-Chords
Kyshera

Gone(Tabs)

Kyshera

Key: C
Intro 

    Clean 
Eb|-0-1---3-1---0-1-----0-----------------------------------------------------| 
Bb|-1-1---1-1---1-1---3-1-----------------------------------------------------| 
Gb|-0-0---0-0---0-0---0-0-----------------------------------------------------| 
Db|---------------------------------------------------------------------------| 
Ab|---------------------------------------------------------------------------| 
Eb|---------------------------------------------------------------------------| 

   'Way oh, way oh' 
     
   Guitar 1 - Distortion 
   Cadd9               FM7add9             Cadd9     Cadd9/E   FM7add9   
Eb|-------------------------------------------------------------------8-------| 
Bb|----------8-------------------8------------------------------------8-------| 
Gb|-----9---------9---------9---------9---------9---------7---------9---------| 
Db|--12---12---12---12---10---10---10---10---12---12---10---10---10-----------| 
Ab|--------------------8-----------------------------7---------8--------------| 
Eb|8---------------------------------------8----------------------------------| 
  |                                                                           | 
  | Guitar 2 - Clean                                                          | 
Eb|-----------15-----------------15-----------------15------------------------| 
Bb|15---15-17-----15---15---15-17-----15---15--15-17----15--15--15-17-18--17--| 
Gb|---17--------17--17----17--------17--17---17-------17--17--17--------17--17| 
Db|---------------------------------------------------------------------------| 
Ab|---------------------------------------------------------------------------| 
Eb|---------------------------------------------------------------------------| 

   Guitar 1 - Distortion 
   Cadd9               FM7add9             Am      G       Fadd9  
Eb|---------------------------------------------------------------------------| 
Bb|----------8-------------------8-------------5-------3----------------------| 
Gb|-----9---------9---------9---------9------5---5---4---4-12--12--12---------| 
Db|--12---12---12---12---10---10---10---10-7-------5-------10--10--10---------| 
Ab|--------------------8-----------------------------------8---8---8----------| 
Eb|8--------------------------------------------------------------------------| 
  |                                                                           | 
  | Guitar 2 - Clean                                                          | 
Eb|-----------15-----------------15-----------------15------------------------| 
Bb|15---15-17-----15---15---15-17-----15---15--15-17----15--15--15-17-18------| 
Gb|---17--------17--17----17--------17--17---17-------17--17--17--------------| 
Db|---------------------------------------------------------------------------| 
Ab|---------------------------------------------------------------------------| 
Eb|---------------------------------------------------------------------------| 

verse 1 - 'Go' 
    
    Acoustic 
   C              Gm         F          C              Gm         F  
Eb|0--0-0---0-0-0-3--3-3-3-3-1--1-1-1-1-0--0-0-----0-0-3--3-3-3-3-1--1-1-1-1--| 
Bb|1--1-1---1-1-1-3--3-3-3-3-1--1-1-1-1-1--1-1-1---1-1-3--3-3-3-3-1--1-1-1-1--| 
Gb|0--0-0-0-0-0-0-3--3-3-3-3-2--2-0-0-0-0--0-0-0---0-0-3--3-3-3-3-2--2-0-0-0--| 
Db|2--2---2-2-2-2-5--5-5-5-5-3--3-3-3-3-2--2---0h2-2-2-3--3-3-3-3-3--3-3-3-3--| 
Ab|3--3---3-3-3-3-5--5-5-5-5-3--3-3-3-3-3--3---3---3-3-5--5-5-5-5-3--3-3-3-3--| 
Eb|---------------3--3-3-3-3---------------------------3--3-3-3-3-------------| 

    Guitar 1 - Acoustic 
     Am            F              Am             D  
Eb|-0-0-0----0-0-0-1-1-1----1-1-1-0-0-0----0-0-0-2--2-2-3-2-------------------| 
Bb|-1-1-1----1-1-1-1-1-1----1-1-1-1-1-1----------3--3-3-3-3-------------------| 
Gb|-2-2-2-2--2-2-2-0-0-0-0--0-0-0-2-2-2-2--2-2-2-2--2-2-2-2-------------------| 
Db|-2-2---2--2-2-2-3-3---3--3-3-3-2-2---2--2-2-2-0--0-0-0-0-------------------| 
Ab|-0-0---0--0-0-0-3-3---3--3-3-3-0-0---0--0-0-0------------------------------| 
Eb|---------------------------------------------------------------------------| 
  |                                                                           | 
  | Guitar 2 - Clean                                                          | 
Eb|-------0--------------3--------------0-------------2-3-2-------------------| 
Bb|-----1--------------1--------------1---------------3-3-3-------------------| 
Gb|---2--------------0--------------2---------------2-------------------------| 
Db|-2--------------3--------------2--------------0----------------------------| 
Ab|---------------------------------------------------------------------------| 
Eb|---------------------------------------------------------------------------| 

    Guitar 1 - Acoustic 
    F               G               F               G 
Eb|-1-1-1-----1-1-1-3-3-3-----3-3-3-1-1-1-----1-1-1-3-------------------------| 
Bb|-1-1-1-----1-1-1-3-3-3-----3-3-3-1-1-1-----1-1-1-3-------------------------| 
Gb|-0-0-0-0-0-0-0-0-0-0-0---0-0-0-0-0-0-0-0-0-0-0-0-0-------------------------| 
Db|-3-3---3-3-3-3-3-0-0---0-0-0-0-0-3-3---3-3-3-3-3-0-------------------------| 
Ab|-3-3---3-3-3-3-3-2-2---2-2-2-2-2-3-3---3-3-3-3-3-2-------------------------| 
Eb|-----------------3-3---3-3-3-3-3-----------------3-------------------------| 
  |                                                                           | 
  | Guitar 2 - Clean                                                          |  
Eb|-----------3---------------5---------------3-------------------------------| 
Bb|-------1------1--------3-------3-------1-------1---------------------------| 
Gb|----0---------------0---------------0--------------------------------------| 
Db|-3---------------5---------------3-----------------------------------------| 
Ab|---------------------------------------------------------------------------| 
Eb|---------------------------------------------------------------------------| 
  |                                                                           | 
  | Guitar 3 - Distorted                                                      | 
Eb|-------------------------------------------------3-------------------------| 
Bb|-------------------------------------------------3-------------------------| 
Gb|-------------------------------------------------0-------------------------| 
Db|-------------------------------------------------0-------------------------| 
Ab|-------------------------------------------------2-------------------------| 
Eb|-------------------------------------------------3-------------------------| 

Chorus 1 - 'cos I only see the best of you, when you are pretending' 

   Distortion 
   Cadd9               FM7add9             Cadd9     Cadd9/E   FM7add9   
Eb|-------------------------------------------------------------------8-------| 
Bb|----------8-------------------8------------------------------------8-------| 
Gb|-----9---------9---------9---------9---------9---------7---------9---------| 
Db|--12---12---12---12---10---10---10---10---12---12---10---10---10-----------| 
Ab|--------------------8-----------------------------7---------8--------------| 
Eb|8---------------------------------------8----------------------------------| 

   Cadd9               FM7add9             Cadd9     Cadd9/E   FM7add9   
Eb|-------------------------------------------------------------------8-------| 
Bb|----------8-------------------8------------------------------------8-------| 
Gb|-----9---------9---------9---------9---------9---------7---------9---------| 
Db|--12---12---12---12---10---10---10---10---12---12---10---10---10-----------| 
Ab|--------------------8-----------------------------7---------8--------------| 
Eb|8---------------------------------------8----------------------------------| 

verse 2 - 'Gone' 

    Distortion 
    C                     Gm     F      C                     Gm     F  
Eb|---------------------------------------------------------------------------| 
Bb|-5--5--6-5---5-5--11---11-11--10--10-5--5--6-5---5-5--11---11-11--10--10---| 
Gb|-5--5--5-5---5-5--12---12-12--10--10-5--5--5-5---5-5--12---12-12--10--10---| 
Db|-5--5--5-5---5-5--12---12-12--10--10-5--5--5-5---5-5--12---12-12--10--10---| 
Ab|-3-------3---3-3--10---10-10--8---8--3-------3---3-3--10---10-10--8---8----| 
Eb|---------------------------------------------------------------------------| 

    Am          F           Am          D  
Eb|-------0-----------1-----------0----------2-3-2----------------------------| 
Bb|----------1-----------1-----------1-------3-3-3----------------------------| 
Gb|-----2-----------2-----------2----------2-2-2-2----------------------------| 
Db|---2-----------3-----------2---------0-------------------------------------| 
Ab|-0-----------------------0-------------------------------------------------| 
Eb|-------------1-------------------------------------------------------------| 
   
    F          G          F          G 
                                     PM.............. 
Eb|---------------------------------------------------------------------------| 
Bb|---------------------------------------------------------------------------| 
Gb|---------------------------------------------------------------------------| 
Db|-3--3--3-3--5--5--5-5--3--3--3-3--5-5-5-5-5-5-5-5-5-5-5-5-5-5-5-5----------| 
Ab|-3--3--3-3--5--5--5-5--3--3--3-3--5-5-5-5-5-5-5-5-5-5-5-5-5-5-5-5----------| 
Eb|-1--1--1-1--3--3--3-3--1--1--1-1--3-3-3-3-3-3-3-3-3-3-3-3-3-3-3-3----------| 

Chorus 2 - 'cos I only see the best of you, when you are pretending' 

   Distortion 
   Cadd9               FM7add9             Cadd9     Cadd9/E   FM7add9   
Eb|-------------------------------------------------------------------8-------| 
Bb|----------8-------------------8------------------------------------8-------| 
Gb|-----9---------9---------9---------9---------9---------7---------9---------| 
Db|--12---12---12---12---10---10---10---10---12---12---10---10---10-----------| 
Ab|--------------------8-----------------------------7---------8--------------| 
Eb|8---------------------------------------8----------------------------------| 

   Cadd9               FM7add9             Am      G       Fadd9  
Eb|---------------------------------------------------------------------------| 
Bb|----------8-------------------8-------------5-------3----------------------| 
Gb|-----9---------9---------9---------9------5---5---4---4-12--12--12-----12\-| 
Db|--12---12---12---12---10---10---10---10-7-------5-------10--10--10-----10\-| 
Ab|--------------------8-----------------------------------8---8---8------8\--| 
Eb|8--------------------------------------------------------------------------|  

Bridge - 'Too much of a good thing' 

    Am                    D         
Eb|---------------------------------------------------------------------------| 
Bb|---------------------------------------------------------------------------| 
Gb|-5-5--------5-5--------7-7--------7-7--------------------------------------| 
Db|-7-7-x-x--x-7-7-x-x--x-7-7-x-x--x-7-7-x-x--x-------------------------------| 
Ab|-7-7-x-x--x-7-7-x-x--x-5-5-x-x--x-5-5-x-x--x-------------------------------| 
Eb|-5-5-x-x--x-5-5-x-x--x-----x-x--x-----x-x--x-------------------------------| 

    Am                    D         
Eb|---------------------------------------------------------------------------| 
Bb|---------------------------------------------------------------------------| 
Gb|-5-5--------5-5--------7-7--------7-7--------------------------------------| 
Db|-7-7-x-x--x-7-7-x-x--x-7-7-x-x--x-7-7-x-x--x-------------------------------| 
Ab|-7-7-x-x--x-7-7-x-x--x-5-5-x-x--x-5-5-x-x--x-------------------------------| 
Eb|-5-5-x-x--x-5-5-x-x--x-----x-x--x-----x-x--x-------------------------------| 

    Guitar 1 - Distorted   
         F                                         G                
Eb|---------------------------------------------------------------------------| 
Bb|---------------------------------------------------------------------------| 
Gb|---------------------------------------------------------------------------| 
Db|------3-3-3-3-3-3-3-3-3-3-3-3-3-3-3-3-3-3-3-3-3-5-5-5-5-5-5-5-5-5-5-5-5-5-5| 
Ab|------3-3-3-3-3-3-3-3-3-3-3-3-3-3-3-3-3-3-3-3-3-5-5-5-5-5-5-5-5-5-5-5-5-5-5| 
Eb|------1-1-1-1-1-1-1-1-1-1-1-1-1-1-1-1-1-1-1-1-1-3-3-3-3-3-3-3-3-3-3-3-3-3-3| 
  |                                                                           | 
  | Guitar 2 - Distorted                                                      | 
Eb|---------------------------------------------------------------------------| 
Bb|---------------------------------------------------------------------------| 
Gb|14-14-14\12-12-12-12\9-9-9-9/12-12-12-12\9-9-9--7--9--4--------------------| 
Db|---------------------------------------------------------------------------| 
Ab|---------------------------------------------------------------------------| 
Eb|---------------------------------------------------------------------------| 

    Guitar 1 - Distorted   
         F                                         G                
Eb|------------------------------------------------3--------------------------| 
Bb|------------------------------------------------3--------------------------| 
Gb|------------------------------------------------0--------------------------| 
Db|------3-3-3-3-3-3-3-3-3-3-3-3-3-3-3-3-3-3-3-3-3-0--------------------------| 
Ab|------3-3-3-3-3-3-3-3-3-3-3-3-3-3-3-3-3-3-3-3-3-2--------------------------| 
Eb|------1-1-1-1-1-1-1-1-1-1-1-1-1-1-1-1-1-1-1-1-1-3--------------------------| 
  |                                                                           | 
  | Guitar 2 - Distorted                                                      | 
Eb|---------------------------------------------------------------------------| 
Bb|---------------------------------------------------------------------------| 
Gb|14-14-14\12-12-12-12\9-9-9-9/12-12-12-12\9-9-9--7--------------------------| 
Db|---------------------------------------------------------------------------| 
Ab|---------------------------------------------------------------------------| 
Eb|---------------------------------------------------------------------------| 

Chorus 3 - 'cos I only see the best of you' 

    Acoustic 
    C               F               C               F 
Eb|-----0-------0-------1-------1-------0-------0-------1-------1-------------| 
Bb|-1---1---1---1---1---1---1---1---1---1---1---1---1---1---1---1-------------| 
Gb|-0-------0-------2-------2-------0-------0-------2-------2-----------------| 
Db|-------------------3---3---3---3-----------2---2---3---3---3---3-----------| 
Ab|---3---3---3---3-------------------3---3-----------------------------------| 
Eb|---------------------------------------------------------------------------| 

    C               F                
Eb|-----0-------0-------1-------1---------------------------------------------| 
Bb|-1---1---1---1---1---1---1---1---------------------------------------------| 
Gb|-0-------0-------2-------2-------------------------------------------------| 
Db|-------------------3---3---3---3-------------------------------------------| 
Ab|---3---3---3---3-----------------------------------------------------------| 
Eb|---------------------------------------------------------------------------| 

    Guitar 1 - Distorted 
    Am                      G                       F  
    PM.................................... 
Eb|---------------------------------------------------------------------------| 
Bb|---------------------------------------------------------------------------| 
Gb|---------------------------------------------------------------------------| 
Db|-7--7--7--7--7--7--7--7--5--5--5--5--5--5--5--5--3----3---3----------------| 
Ab|-7--7--7--7--7--7--7--7--5--5--5--5--5--5--5--5--3----3---3----------------| 
Eb|-5--5--5--5--5--5--5--5--3--3--3--3--3--3--3--3--1----1---1----------------| 
  |                                                                           | 
  | Guitar 2 - Distorted                                                      |     
Eb|---------------------------------------------------------------------------| 
Bb|---------------------------------------------------------18----------------| 
Gb|-14-14-14-14-14-14-14-14-16-16-16-16-16-16-16-16-17--19--------------------| 
Db|---------------------------------------------------------------------------| 
Ab|-12-12-12-12-12-12-12-12-14-14-14-14-14-14-14-14---------------------------| 
Eb|---------------------------------------------------------------------------| 

Chorus 4 - 'cos I only see the best of you' 

   Guitar 1 - Distortion 
   Cadd9               FM7add9             Cadd9     Cadd9/E   FM7add9   
Eb|-------------------------------------------------------------------8-------| 
Bb|----------8-------------------8------------------------------------8-------| 
Gb|-----9---------9---------9---------9---------9---------7---------9---------| 
Db|--12---12---12---12---10---10---10---10---12---12---10---10---10-----------| 
Ab|--------------------8-----------------------------7---------8--------------| 
Eb|8---------------------------------------8----------------------------------| 

   Guitar 1 - Distortion 
   Cadd9               FM7add9             Cadd9     Cadd9/E   FM7add9   
Eb|-------------------------------------------------------------------8-------| 
Bb|----------8-------------------8------------------------------------8-------| 
Gb|-----9---------9---------9---------9---------9---------7---------9---------| 
Db|--12---12---12---12---10---10---10---10---12---12---10---10---10-----------| 
Ab|--------------------8-----------------------------7---------8--------------| 
Eb|8---------------------------------------8----------------------------------| 

Outro - 'Way Oh, way oh' 

   Guitar 1 - Distortion 
   Cadd9               FM7add9             Cadd9     Cadd9/E   FM7add9   
Eb|-------------------------------------------------------------------8-------| 
Bb|----------8-------------------8------------------------------------8-------| 
Gb|-----9---------9---------9---------9---------9---------7---------9---------| 
Db|--12---12---12---12---10---10---10---10---12---12---10---10---10-----------| 
Ab|--------------------8-----------------------------7---------8--------------| 
Eb|8---------------------------------------8----------------------------------| 
  |                                                                           | 
  | Guitar 2 - Clean                                                          | 
Eb|-----------15-----------------15-----------------15------------------------| 
Bb|15---15-17-----15---15---15-17-----15---15--15-17----15--15--15-17-18--17--| 
Gb|---17--------17--17----17--------17--17---17-------17--17--17--------17--17| 
Db|---------------------------------------------------------------------------| 
Ab|---------------------------------------------------------------------------| 
Eb|---------------------------------------------------------------------------| 

   Guitar 1 - Distortion 
   Cadd9               FM7add9             Am      G       F  
Eb|---------------------------------------------------------------------------| 
Bb|----------8-------------------8-------------5-------3----------------------| 
Gb|-----9---------9---------9---------9------5---5---4---4--------------------| 
Db|--12---12---12---12---10---10---10---10-7-------5-------3--3--3------------| 
Ab|--------------------8-----------------------------------3--3--3------------| 
Eb|8-------------------------------------------------------1--1--1------------| 
  |                                                                           | 
  | Guitar 2 - Clean                                                          | 
Eb|-----------15-----------------15-----------------15------------------------| 
Bb|15---15-17-----15---15---15-17-----15---15--15-17----15--15--15-17-18------| 
Gb|---17--------17--17----17--------17--17---17-------17--17--17--------------| 
Db|---------------------------------------------------------------------------| 
Ab|---------------------------------------------------------------------------| 
Eb|---------------------------------------------------------------------------| 

   Feedback till end... 
Eb|---------------------------------------------------------------------------| 
Bb|---------------------------------------------------------------------------| 
Gb|---------------------------------------------------------------------------| 
Db|---------------------------------------------------------------------------| 
Ab|---------------------------------------------------------------------------| 
Eb|---------------------------------------------------------------------------| 


************************************ 

| x   Dead note 
| h   Hammer-on 
| /   Slide up 
| \   Slide down 
| PM  Palm mute 

************************************ 

roll up this ad to continue

share this page

See Also: