E-Chords
JEFF the Brotherhood

Diamond Way(Tabs)

JEFF the Brotherhood

Tuning: Drop  D   D   A   D   G   B  e 

Intro: 


e|-----------------------------------------------------| 
B|-----------------------------------------------------| 
G|-----------------------------------------------------| 
D|-----12h14p12---11h12p11---9h11p9---7h9p7---6h7-7----| 
A|-----0----------0----------0--------0-------0---0----| 
D|-----------------------------------------------------| 

e|-----------------------------------------------------| 
B|-----------------------------------------------------| 
G|-----------------------------------------------------| 
D|-----12h14p12---11h12p11---9h11p9---7h9p7---6h7-7----| 
A|-----0----------0----------0--------0-------0---0----| 
D|-----------------------------------------------------| 

e|-----------------------------------------------------| 
B|-----------------------------------------------------| 
G|-----------------------------------------------------| 
D|-----------------------------------------------------| 
A|---7h9--99--99---11h12-1212--1212-/16161614-141414---| 
D|---0----00--00---0-----0-0---0-0---0-0-0-0--0-0-0----| 

e|------------------| 
B|-----------------o| 
G|------------------| 
D|------------------| 
A|--16161614-1414--o| 
D|--0-0-0-0--0-0----| 

Next Part: 


Chords Used: 

e|------------------------------------| 
B|------------------------------------| 
G|------------------------------------| 
D|-7-------9-------12-------4-------5-| 
A|-7-------9-------12-------4-------5-| 
D|-7-------9-------12-------4-------5-| 
       


e|-----------------------------------------------------| 
B|-----------------------------------------------------| 
G|-----------------------------------------------------| 
D|-----------------------------------------------------| 
A|---7h9--7--777-7h9--7--777-7h9--7--777-7h9--7--777---| 
D|---7----7--777-7----7--777-7----7--777-7----7--777---| 
           Ooh    Ooh         Ooh    Ooh         Ooh    Ooh         Ooh   Ooh 




e|-----------------------------------------------------| 
B|-----------------------------------------------------| 
G|-----------------------------------------------------| 
D|-----------------------------------------------------| 
A|---7h9--7--777-7h9--7--777-7h9--7--777-7h9--7--777---| 
D|---7----7--777-7----7--777-7----7--777-7----7--777---| 
           Ooh    Ooh         Ooh   Ooh          Ooh   Ooh         Ooh    Ooh 



e|-----------------------------------------------------| 
B|-----------------------------------------------------| 
G|-----------------------------------------------------| 
D|---/12-14-12---11-12-11---9-11-9---7-9-7---6h7-7-----| 
A|----0--0--0----0--0--0----0-0--0---0-0-0---0---0-----| 
D|-----------------------------------------------------| 

e|-----------------------------------------------------| 
B|-----------------------------------------------------| 
G|-----------------------------------------------------| 
D|----12-14-12---11-12-11---9-11-9---7-9-7---6h7-7-----| 
A|----0--0--0----0--0--0----0-0--0---0-0-0---0---0-----| 
D|-----------------------------------------------------| 

           
e|-----------------------------------------------------| 
B|-----------------------------------------------------| 
G|-----------------------------------------------------| 
D|---4444444444444444----------------------------------| 
A|---4444444444444444--/16161614-141414--16161614-1414-| 
D|---4444444444444444---0-0-0-0--0-0-0---0-0-0-0--0-0--| 

e|-----------------------------------------------------| 
B|-----------------------------------------------------| 
G|-----------------------------------------------------| 
D|---/12-14-12---11-12-11---9-11-9---7-9-7---6h7-7-----| 
A|----0--0--0----0--0--0----0-0--0---0-0-0---0---0-----| 
D|-----------------------------------------------------| 

e|-----------------------------------------------------| 
B|-----------------------------------------------------| 
G|-----------------------------------------------------| 
D|----12-14-12---11-12-11---9-11-9---7-9-7---6h7-7-----| 
A|----0--0--0----0--0--0----0-0--0---0-0-0---0---0-----| 
D|-----------------------------------------------------| 

            
e|-----------------------------------------------------| 
B|-----------------------------------------------------| 
G|-----------------------------------------------------| 
D|---4444444444444444----------------------------------| 
A|---4444444444444444--/16161614-1414--16161614-141414-| 
D|---4444444444444444---0-0-0-0--0-0---0-0-0-0--0-0-0?-| 



e|---------------------------------------| 
B|---------------------------------------| 
G|---------------------------------------| 
D|---------------------------------------| 
A|---7h9--7--777-7h9--7--777-7h9--7--777-| 
D|---7----7--777-7----7--777-7----7--777-| 
           Ooh    Ooh         Ooh    Ooh         Ooh    Ooh 



e|---------------------------------------| 
B|---------------------------------------| 
G|---------------------------------------| 
D|---------------------------------------| 
A|---7h9--7--777-7h9--7--777-7h9--7--777-| 
D|---7----7--777-7----7--777-7----7--777-| 
           Ooh    Ooh         Ooh    Ooh         Ooh    Ooh  

roll up this ad to continue

share this page

See Also: