E-Chords
JANK

Kentucky Castle(Tabs)

JANK

roll up this ad to continue

Intro 

e|---------------------------------------------------------------------------| 
B|4--------6-------4bendybendywobblewobble0----------------------------------| 
G|0--------0-----------------------------------------------------------------| 
D|1--------3-----------------------------------------------------------------| 
A|2--------4-----------------------------------------------------------------| 
E|---------------------------------------------------------------------------| 

Verse 

e|----------5------------------------------------------------------------------------------17---0------| 
B|3--570----5----3--570----2--nowdothatagainchampthenyoudotheseattheendoftheriffwejustdid--0----14-----| 
G|0--000----5----0--000----0---------------------------------------------------------------17---0------| 
D|0--570----7----0--570----2---------------------------------------------------------------0----14-----| 
A|0--000----5----0--000----0---------------------------------------------------------------0----0------| 
E|0--000----5----0--000----0---------------------------------------------------------------0----0------| 

e|0forthisyoucankindajustpluckrandomstringsforabit-0----------------0-----------| 
B|3------------------------------------------------0-----------------0----------| 
G|0------------------------------------------------2----5---3---350--2--5--4----| 
D|0------------------------------------------------2----5---5---5----2--5--5----| 
A|0------------------------------------------------2----5---5---5----2--5--5----| 
A|0------------------------------------------------2----5---5---5----2--5--5----| 


e|---------------------------------------------------------------------------| 
B|33375------32--------------------------------------------------------------| 
G|00000----5400--------------------------------------------------------------| 
D|00000----5542--keepdoingthislittlebituntilthesexybitcomesin----------------| 
A|00000----5550--------------------------------------------------------------| 
E|04565----550---------------------------------------------------------------| 

e|-----------------75--------575---------------------------------------------| 
B|101210-----2---5755--3--------7575-----------------------------------------| 
G|0-0-0-1210-0---0000--0------------7-7--------------------------------------| 
D|0-0-0-0-0--0---0000--0--------------0--------------------------------------| 
A|0-0-0-0-0--0---0000--0--------------0--------------------------------------| 
E|-----------0---5555--0--------------0--------------------------------------| 



************************************ 

| x   Dead note 
| g   Grace note 
| (n) Ghost note 
| h   Hammer-on 
| p   Pull-off 
| r   Release 
| >   Accented note 
| t   Tapping 
| b   Bend 
| br  Bend release 
| pb  Pre-bend 
| pbr Pre-bend release 
| /   Slide up 
| \   Slide down 
| ~   Vibrato 
| s   Slap 
| P   Pop 
| PM  Palm mute 
| TR  Trill 
| N   Tremolo 

************************************ 
share this page

See Also: