E-Chords
Intensify

Your Own Didaster(Tabs)

Intensify

roll up this ad to continue

 
 
 
------------------------------------------------------- 
------------------------------------------------------- 
-----------7-----8-----12------10---7---8-------------- 
---------7-----8-----12-----10-----7---8----8-----10--- 
-------5-----6-----10-----8-------5---6----8----10----- 
------------------------------------------6----8------- 
 
 
------------------------------------------------------- 
------------------------------------------------------- 
-----------7-----8-----12------10---7---8-------------- 
---------7-----8-----12-----10-----7---8----8-----10--- 
-------5-----6-----10-----8-------5---6----8----10----- 
------------------------------------------6----8------- 
 
share this page

See Also: