Incubus

New Skin (ver. 4)(Tabs)

Incubus

roll up this ad to continue

	        This song is easy, untill the verse.  Just crank the gain/distortion up, and have fun! 
 
~whammy bar 
( )=palm mute 
 
INTRO: Crank the gain/distorion up as high as you can 
e|------------------------------------------------------| 
B|------------------------------------------------------| 
G|(44--44--44)--44--------------------------------------| 
D|(44--44--44)--44--------------------------------------| 
A|(22--22--22)--22--------------------------------------| 
E|(22--22--22)--22--------------------------------------| 
 
pre verse (4 times) 
e|------------------------------------------------------| 
B|------------------------------------------------------| 
G|-44-44-4--3---44-44-4--7-7-7--------------------------| 
D|-44-44-4--3---44-44-4--7-7-7--------------------------| 
A|-22-22-2--1---22-22-2--5-5-5--------------------------| 
E|-22-22-2--1---22-22-2--5-5-5--------------------------| 
     
       Verse: Super-fast tempo, just listen to how mike plays it, and you'll be fine.         
e|-------------------------15-12------------------------| 
B|-------------------11/12------12/13-------------------| 
G|-10/11-11-11-11/12------------------------------------| 
D|------------------------------------------------------| 
A|------------------------------------------------------| 
E|------------------------------------------------------| 
 
e|-------------------------15-12------------------------| 
B|-------------------11/12------12/13-------------------| 
G|-10/11-11-11-11/12------------------------------------| 
D|------------------------------------------------------| 
A|------------------------------------------------------| 
E|------------------------------------------------------| 
 
e|-------------------------15-12------------------------| 
B|-------------------11/12------12/13-------------------| 
G|-10/11-11-11-11/12------------------------------------| 
D|------------------------------------------------------| 
A|------------------------------------------------------| 
E|------------------------------------------------------| 
 
e|------------------------------------------------------| 
B|------------------------------------------------------| 
G|-10/11-11-11-11--4-4-4-4-4----------------------------| 
D|-----------------4-4-4-4-4----------------------------| 
A|-----------------2-2-2-2-2----------------------------| 
E|-----------------2-2-2-2-2----------------------------| 
 
pre-chorus (phaser with distortion)  
 
e|------------------------------------------------------| 
B|------------------------------------------------------| 
G|-4-4-----5-5-5----------------------------------------| 
D|-4-4-----5-5-5----------------------------------------| 
A|-2-2-----3-3-3----------------------------------------| 
E|-2-2--2--3-3-3----------------------------------------| 
 
Chorus 
 
e|------------------------------------------------------| 
B|------------------------------------------------------| 
G|-4-4----5-5-5--4-4---7-7-7----------------------------| 
D|-4-4----5-5-5--4-4---7-7-7----------------------------| 
A|-2-2----3-3-3--2-2---5-5-5----------------------------| 
E|-2-2----3-3-3--2-2---5-5-5----------------------------| 
 
pre verse (4 times) 
e|------------------------------------------------------| 
B|------------------------------------------------------| 
G|-44-44-4--3---44-44-4--7-7-7--------------------------| 
D|-44-44-4--3---44-44-4--7-7-7--------------------------| 
A|-22-22-2--1---22-22-2--5-5-5--------------------------| 
E|-22-22-2--1---22-22-2--5-5-5--------------------------| 
 
Verse 
e|-------------------------15-12------------------------| 
B|-------------------11/12------12/13-------------------| 
G|-10/11-11-11-11/12------------------------------------| 
D|------------------------------------------------------| 
A|------------------------------------------------------| 
E|------------------------------------------------------| 
 
e|-------------------------15-12------------------------| 
B|-------------------11/12------12/13-------------------| 
G|-10/11-11-11-11/12------------------------------------| 
D|------------------------------------------------------| 
A|------------------------------------------------------| 
E|------------------------------------------------------| 
 
e|-------------------------15-12------------------------| 
B|-------------------11/12------12/13-------------------| 
G|-10/11-11-11-11/12------------------------------------| 
D|------------------------------------------------------| 
A|------------------------------------------------------| 
E|------------------------------------------------------| 
 
e|------------------------------------------------------| 
B|------------------------------------------------------| 
G|-10/11-11-11-11--4-4-4-4-4----------------------------| 
D|-----------------4-4-4-4-4----------------------------| 
A|-----------------2-2-2-2-2----------------------------| 
E|-----------------2-2-2-2-2----------------------------| 
 
pre verse (phaser)(8 times) (starts when Brandon sings 'Dead skin will a
trophe itsself to start again...') 
e|------------------------------------------------------| 
B|------------------------------------------------------| 
G|-44-44-4--3---44-44-4--7-7-7--------------------------| 
D|-44-44-4--3---44-44-4--7-7-7--------------------------| 
A|-22-22-2--1---22-22-2--5-5-5--------------------------| 
E|-22-22-2--1---22-22-2--5-5-5--------------------------| 
 
Chorus  
 
e|------------------------------------------------------| 
B|------------------------------------------------------| 
G|-4-4----5-5-5--4-4---7-7-7----------------------------| 
D|-4-4----5-5-5--4-4---7-7-7----------------------------| 
A|-2-2----3-3-3--2-2---5-5-5----------------------------| 
E|-2-2----3-3-3--2-2---5-5-5----------------------------| 
 
 
Intro:  
e|------------------------------------------------------| 
B|------------------------------------------------------| 
G|(44--44--44)--44--------------------------------------| 
D|(44--44--44)--44--------------------------------------| 
A|(22--22--22)--22--------------------------------------| 
E|(22--22--22)--22--------------------------------------| 
 
 
Solo 
 (Mike changes this every time live, though) 
e|-10-10~--------12------8-----9-----| 
B|-------8---11-------9-----7--------| 
G|--------8--------7-----------------| 
D|-------------------------------9h10| 
A|-----------------------------------| 
E|-----------------------------------| 
 
breakdown 
e|--------------------------------------------------| 
B|--------------------------------------------------| 
G|-4444--4444--4444-44-4-4--4--4--4-----------------| 
D|-4444--4444--4444-44-4-4--4--4--4-----------------| 
A|-2222--2222--2222-22-2-2--2--2--2-----------------| 
E|-2222--2222--2222-22-2-2--2--2--2-----------------| 
 
 
pre-chorus (phaser)  
 
e|------------------------------------------------------| 
B|------------------------------------------------------| 
G|-4-4-----5-5-5----------------------------------------| 
D|-4-4-----5-5-5----------------------------------------| 
A|-2-2-----3-3-3----------------------------------------| 
E|-2-2--2--3-3-3----------------------------------------| 
 
pre verse (4 times) 
e|------------------------------------------------------| 
B|------------------------------------------------------| 
G|-44-44-4--3---44-44-4--7-7-7--------------------------| 
D|-44-44-4--3---44-44-4--7-7-7--------------------------| 
A|-22-22-2--1---22-22-2--5-5-5--------------------------| 
E|-22-22-2--1---22-22-2--5-5-5--------------------------| 
 
Thats about it; this is a really fun song to try and tackle, 
just work on the verse, and listen to the song for the tempo, 
since its a bit confusing at first.  
Just in case you were wondering, mike uses a Boss PH-2 Ultra Phaser in New Skin, 
on setting 8,full depth, full res, and the tempo knob really close to min.  
I didn't actually see it, im just basing this off of trial and error with my phaser.  
And remember kids, enjoy incubus! 

Transcribed by: Chase Blair 
Email: [email protected]
	        

Written by Brandon Boyd/Mike Einziger/Alex Katunich/Gideon Koppel/Jose Antonio Pasillas II

See Also: