E-Chords
Hockey Dad

Whatever(Tabs)

Hockey Dad

roll up this ad to continue

Chords play throughout whole song 

eb|-8-----8-(4)---(6)(6)-(4)-8----| 
Bb|-8-----8--6-----8--8---6--8----| 
Gb|-8-----8--5-----7--7---5--8----| 
Db|-8-----8-(4)---(6)(6)-(4)-8----| 
Ab|-6-----6--6-----8--8---6--6----| 
Eb|----------4-----6--6---4-------| 


Riff over chords play throughout whole song 

eb|-4--4--6--3------6-6/4--4-3---3--------| 
Bb|-6--6--8--4-----8-8---6-6-4-------4----| 
Gb|-------------------------------3h5-----| 
Db|---------------------------------------| 
Ab|---------------------------------------| 
Eb|---------------------------------------| 


Solo 1 slight distorion, be real quick on hammer ons and pull offs 

eb|----------------6h8-6h8-6h8-6-----------------6---6h8-6h8-6h8-6h8p6------| 
Bb|-6h8-6h8-6/4------------------8------4-4---6/8---6------------------6----| 
Gb|------------5---------------------3h5--5---------------------------------| 
Db|-------------------------------------------------------------------------| 
Ab|-------------------------------------------------------------------------| 
Eb|-------------------------------------------------------------------------| 


Solo 2 slight distortion 

eb|-6h8p6-------6----6h8-11-8-6----------4-4-6-6-------8------------| 
Bb|-------8-6h8-8-------------8-------4--6-6-8-8----6h8--6h8p6/4----| 
Gb|--------------------------------3h5------------------------------| 
Db|-----------------------------------------------------------------| 
Ab|-----------------------------------------------------------------| 
Eb|-----------------------------------------------------------------| 


Final riff 

eb|-6-6-4-3------------6-6-4-3--| 
Bb|-8-8-6-4---------4--8-8-6-4--| 
Gb|--------------3h5------------| 
Db|-----------------------------| 
Ab|-----------------------------| 
Eb|-----------------------------| 

*********************************** 

| (n) Ghost note 
| h   Hammer-on 
| p   Pull-of 
| /   Slide up 
| \   Slide down 

************************************ 
share this page

See Also: