E-Chords
Gs Megaphone

Alive(Tabs)

Gs Megaphone

Intro 

e|-|------------------------------------| 
B|-|------------------------------------| 
G|-|------------------------------------| 
D|-|-6-6-x-6--6-6-x-6--6-6-x-6--3-3-x-6-| 
A|-|-6-6-x-4--6-6-x-4--6-6-x-4--3-3-x-4-| 
E|-|-4-4-x-4--4-4-x-4--4-4-x-4--1-1-x-4-| 
 Play this 3x soft with distort for crackly sound. (Riff 1) 

e|-|---------------------------------------| 
B|-|---------------------------------------| 
G|-|---------------------------------------| 
D|-|-3--3--3--6-6-6--6--6--8--8--8-8-8-psm-| 
A|-|-3--3--3--6-6-6--4--4--6--6--6-6-6-psm-| 
E|-|-1--1--1--4-4-4--4--4--6--6--6-6-6-psm-| 
 Play this 4x heavy, but on the 4th one exclude the 3 last chords. (Riff 2)    


Chorus 

e|-|---------------------------------|x3 
B|-|---------------------------------| 
G|-|---------------------------------| 
D|-|-6-6-6-4-6-6-6-6-8-8-8-8-8-8-8-8-| 
A|-|-6-6-6-4-4-4-4-4-6-6-6-6-6-6-6-6-| 
E|-|-4-4-4-4-4-4-4-4-6-6-6-6-6-6-6-6-| 
                                                                                 

e|-|-----------------|x1 
B|-|-----------------| 
G|-|-----------------| 
D|-|-6-6-4-6-6-6-6-8-| 
A|-|-4-4-4-4-4-4-4-6-| 
E|-|-4-4-4-4-4-4-4-6-| 
                                                                               

Solo (with Riff 1) 

e|-|-----11-----11-------11-----11-----11------| 
B|-|-8h9----8h9----8-8h9----8h9----8h9----8-8h9| 
G|-|-------------------------------------------| 
D|-|-------------------------------------------| 
A|-|-------------------------------------------| 
E|-|-------------------------------------------| 
                                                                               

e|-|-----------------------------------------11---------------------------| 
B|-|-------------------------------------8h9----8-------------------------| 
G|-|-/8-8-/8-8-/8-(6)-6-5h6-/8-8-/8-8-/8-----------/8-8-/8-8-/8-8-6-(6)-5-| 
D|-|----------------------------------------------------------------------| 
A|-|----------------------------------------------------------------------| 
E|-|----------------------------------------------------------------------| 
                                                                               

e|---------------------------------------------------------------------------| 
B|---------------------------------------------------------------------------| 
G|--5h6p5-------------------------6b7r6-------------7-6h7p6-9-7-6-7p6-6b7r6--| 
D|--------7-9-7-0-5-5h7-5-(5)-7h9-------7-5-7h9p(7)--------------------------| 
A|---------------------------------------------------------------------------| 
E|---------------------------------------------------------------------------| 
                                                                               

e|--------------------------------------------------------------------| 
B|--------------------------------------------------------------------| 
G|--------------------------------------------------6b7r6---6b7r6-----| 
D|--6-4-6-4-6-4-6-3-1b3r1-0-1-0-3-1-3b4r3-0-5-7h9p7-------7-------7---| 
A|--------------------------------------------------------------------| 
E|--------------------------------------------------------------------| 
                                                                               

e|---------------------------------------------------------------| 
B|---------------------------------------------------------------| 
G|----------7-6h7p6-9-7---6h7p6---6h7p6---6h7p6------------------| 
D|--5-7h9p7-------------9-------9-------9-------9-7-7h9p7-9b10p9-| 
A|---------------------------------------------------------------| 
E|---------------------------------------------------------------| 
                                                                               

e|-|--------------------------------------11--------------------------| 
B|-|----------------------------------8h9----8------------------------| 
G|-|/8-8-/8-8-/8-6-6-5h6-/8-8-/8-8-/8-----------/8-8-/8-8-/8-8-6-6-5--| 
D|-|------------------------------------------------------------------| 
A|-|------------------------------------------------------------------| 
E|-|------------------------------------------------------------------| 
                                                                               

e|-----------------------------------------------------------------------| 
B|----------------9-9b11r9-10-9-8h9-8-9b11r9-10-9-8h9-8-8h9p8-9b11r9-10--| 
G|--6h7p6----------------------------------------------------------------| 
D|--------7-9-7-5--------------------------------------------------------| 
A|-----------------------------------------------------------------------| 
E|-----------------------------------------------------------------------| 
                                                                               

e|-----------------------------| 
B|-9-8-7---------6b7r6---------| 
G|---------7h9p7-------7-7-7h9-| 
D|------(6)--------------------| 
A|-----------------------------| 
E|-----------------------------| 
                                                                               
  Bridge for guitar 1 
e|-|---------------------|x2 |--------------| 
B|-|---------------------|   |--------------| 
G|-|---------------------|   |--------------| 
D|-|-3-x8-6-x8-6-x8-8-x8-|   |-6-6-6-6--6-6-| 
A|-|-3----6----4----6----|   |-6-6-6-4--6-6-| 
E|-|-1----4----4----6----|   |-4-4-4-4--8-8-| 
                                                                               
  Bridge for guitar 2 
e|-|-----11-|x8 |---------|   |-----11-|x7 |-11---| 
B|-|-8h9---9|   |-8h9-8h9-|   |-8h9---9|   |----9-| 
G|-|--------|   |---------|   |--------|   |------| 
D|-|--------|   |---------|   |--------|   |------| 
A|-|--------|   |---------|   |--------|   |------| 
E|-|--------|   |---------|   |--------|   |------| 
                                                                               
  Play this lead for parts on last repeats of Chorus. 
e|-|--------|   |--------------|3x |----------------| 
B|-|-9b11-9-|   |-9b11-9-8h9-8-|   |-8h9-8-9b11-9b11-| 
G|-|--------|   |--------------|   |-----------------| 
D|-|--------|   |--------------|   |-----------------| 
A|-|--------|   |--------------|   |-----------------| 
E|-|--------|   |--------------|   |-----------------|  

roll up this ad to continue

share this page

See Also: