E-Chords
Flatsound

You Said Okay(Tabs)

Flatsound

roll up this ad to continue

Key: B

  Intro: 

  (it all started with closed eyes...) 
                      (after 3rd time) 
e|----------------|----------------------| 
B|----------------|----------------------| 
G|----------------|----------------------| 
D|----------------|-------------------9--| 
A|--------9-------|--------9-------------| 
E|--7--7----------|--7--7----------------| 



  (but with the weight of the bible...) 

e|---------------------| 
B|---------------------| 
G|---------------------| 
D|--8-----8-----8-9-8--| 
A|-----9-----9---------| 
E|---------------------| 



  (but if that's the case...) 

e|--------------------| 
B|--------------------| 
G|--------------------| 
D|--9--9--9----9------| 
A|--9--9--9----9------| 
E|--7--7--7----7------| 



  (i'm singing la la la...) 

e|--------------------| 
B|--------------------| 
G|--------------------| 
D|--9--9--9-----------| 
A|--9--9--9-----------| 
E|--7--7--7-----------| 



  (so if we could just pretend...) 

e|----------------| 
B|----------------| 
G|----------------| 
D|----------------| 
A|--------9-------| 
E|--7--7----------| 



  (cause i still think back...) 

e|--------------------| 
B|--------------------| 
G|--------------------| 
D|--9--9--9----9--9---| 
A|--9--9--9----9--9---| 
E|--7--7--7----7--7---| 



  (you said okay...) 

e|----------------| 
B|----------------| 
G|----------------| 
D|----------------| 
A|--------9-------| 
E|--7--7----------| 



  Outro: 
   
e|---------------------| 
B|---------------------| 
G|---------------------| 
D|--8-----8-----8-9-8--| 
A|-----9-----9---------| 
E|---------------------| 
share this page

See Also: