Fear

Some Action(Tabs)

Fear

roll up this ad to continue

	        TRANSCRIBED BY RUDY GUZMAN 
 
 
[email protected] 
 
 
e:-----------------------------------------------------------------------------------| 
B:-------------------------/17-17-17-17-17----------------------------17-17-17-17-17-| 
G:-9---9-9-9-9-9-9-9-9-----/16-16-16-16-16-14-14-14-13-13-13-14-14-14-16-16-16-16-16-| 
D:-9---9-9-9-9-9-9-9-9---------------------------------------------------------------| 
A:-7---7-7-7-7-7-7-7-7---------------------------------------------------------------| 
E:-----------------------------------------------------------------------------------| 
 
 
e:--------------------| 
B:--------------------| 
G:--------------------| 
D:-7-7--3-3--2-2--8-8-| 
A:-5-5--1-1--0-0--6-6-| 
E:--------------------| 
 
e:--------------------| 
B:--------------------| 
G:--------------------| 
D:-7-7--3-3--2-2--8-8-| 
A:-5-5--1-1--0-0--6-6-| 
E:--------------------| 
 
e:--------------------| 
B:--------------------| 
G:--------------------| 
D:-7-7--3-3--2-2--8-8-| 
A:-5-5--1-1--0-0--6-6-| 
E:--------------------| 
 
e:--------------------| 
B:--------------------| 
G:--------------------| 
D:-7-7-10-10--3-3-8-8-| 
A:-5-5-8--8---1-1-6-6-| 
E:--------------------| 
 
e:--------------------| 
B:--------------------| 
G:--------------------| 
D:-7-7-10-10--3-3-8-8-| 
A:-5-5-8--8---1-1-6-6-| 
E:--------------------| 
 
 
e:--------------------| 
B:--------------------| 
G:--------------------| 
D:-7-7--3-3--2-2--8-8-| 
A:-5-5--1-1--0-0--6-6-| 
E:--------------------| 
 
e:--------------------| 
B:--------------------| 
G:--------------------| 
D:-7-7--3-3--2-2--8-8-| 
A:-5-5--1-1--0-0--6-6-| 
E:--------------------| 
 
e:--------------------| 
B:--------------------| 
G:--------------------| 
D:-7-7--3-3--2-2--8-8-| 
A:-5-5--1-1--0-0--6-6-| 
E:--------------------| 
 
 
e:--------------------| 
B:--------------------| 
G:--------------------| 
D:-7-7--3-3--2-2--8-8-| 
A:-5-5--1-1--0-0--6-6-| 
E:--------------------| 
 
e:--------------------| 
B:--------------------| 
G:--------------------| 
D:-7-7--3-3--2-2--8-8-| 
A:-5-5--1-1--0-0--6-6-| 
E:--------------------| 
 
 
:---------------------------------------------------------| 
:---------------------------------------------------------| 
:----------9-------------9-------------9-------------9----| 
:-9-9999-9--9---9-9999-9--9---9-9999-9--9---9-9999-9--9---| 
:-7-7777-7---7--7-7777-7---7--7-7777-7---7--7-7777-7---7--| 
:---------------------------------------------------------| 
 
 
:---------------------------------------------------------| 
:---------------------------------------------------------| 
:----------9-------------9-------------9-------------9----| 
:-9-9999-9--9---9-9999-9--9---9-9999-9--9---9-9999-9--9---| 
:-7-7777-7---7--7-7777-7---7--7-7777-7---7--7-7777-7---7--| 
:---------------------------------------------------------| 
 
 
:---------------------------------------------------------| 
:---------------------------------------------------------| 
:----------9-------------9-------------9-------------9----| 
:-9-9999-9--9---9-9999-9--9---9-9999-9--9---9-9999-9--9---| 
:-7-7777-7---7--7-7777-7---7--7-7777-7---7--7-7777-7---7--| 
:---------------------------------------------------------| 
 
 
e:-------------------------------------------------| 
B:------/17-17-17-17-17----------------------------| 
G:-9----/16-16-16-16-16-14-14-14-13-13-13-14-14-14-| 
D:-9-----------------------------------------------| 
A:-7-----------------------------------------------| 
E:-------------------------------------------------| 
 
 
e:--------------------| 
B:--------------------| 
G:--------------------| 
D:-7-7--3-3--2-2--8-8-| 
A:-5-5--1-1--0-0--6-6-| 
E:--------------------| 
 
e:--------------------| 
B:--------------------| 
G:--------------------| 
D:-7-7--3-3--2-2--8-8-| 
A:-5-5--1-1--0-0--6-6-| 
E:--------------------| 
 
e:--------------------| 
B:--------------------| 
G:--------------------| 
D:-7-7--3-3--2-2--8-8-| 
A:-5-5--1-1--0-0--6-6-| 
E:--------------------| 
 
e:--------------------| 
B:--------------------| 
G:--------------------| 
D:-7-7-10-10--3-3-8-8-| 
A:-5-5-8--8---1-1-6-6-| 
E:--------------------| 
 
e:--------------------| 
B:--------------------| 
G:--------------------| 
D:-7-7-10-10--3-3-8-8-| 
A:-5-5-8--8---1-1-6-6-| 
E:--------------------| 
 
 
e:--------------------| 
B:--------------------| 
G:--------------------| 
D:-7-7--3-3--2-2--8-8-| 
A:-5-5--1-1--0-0--6-6-| 
E:--------------------| 
 
e:--------------------| 
B:--------------------| 
G:--------------------| 
D:-7-7--3-3--2-2--8-8-| 
A:-5-5--1-1--0-0--6-6-| 
E:--------------------| 
 
e:--------------------| 
B:--------------------| 
G:--------------------| 
D:-7-7--3-3--2-2--8-8-| 
A:-5-5--1-1--0-0--6-6-| 
E:--------------------| 
 
 
e:--------------------| 
B:--------------------| 
G:--------------------| 
D:-7-7--3-3--2-2--8-8-| 
A:-5-5--1-1--0-0--6-6-| 
E:--------------------| 
 
e:--------------------| 
B:--------------------| 
G:--------------------| 
D:-7-7--3-3--2-2--8-8-| 
A:-5-5--1-1--0-0--6-6-| 
E:--------------------| 
 
 
:---------------------------------------------------------| 
:---------------------------------------------------------| 
:----------9-------------9-------------9-------------9----| 
:-9-9999-9--9---9-9999-9--9---9-9999-9--9---9-9999-9--9---| 
:-7-7777-7---7--7-7777-7---7--7-7777-7---7--7-7777-7---7--| 
:---------------------------------------------------------| 
 
 
:---------------------------------------------------------| 
:---------------------------------------------------------| 
:----------9-------------9-------------9-------------9----| 
:-9-9999-9--9---9-9999-9--9---9-9999-9--9---9-9999-9--9---| 
:-7-7777-7---7--7-7777-7---7--7-7777-7---7--7-7777-7---7--| 
:---------------------------------------------------------| 
 
 
:---------------------------------------------------------| 
:---------------------------------------------------------| 
:----------9-------------9-------------9-------------9----| 
:-9-9999-9--9---9-9999-9--9---9-9999-9--9---9-9999-9--9---| 
:-7-7777-7---7--7-7777-7---7--7-7777-7---7--7-7777-7---7--| 
:---------------------------------------------------------| 
 
e:-------------------------------------------------| 
B:------/17-17-17-17-17----------------------------| 
G:-9----/16-16-16-16-16-14-14-14-13-13-13-14-14-14-| 
D:-9-----------------------------------------------| 
A:-7-----------------------------------------------| 
E:-------------------------------------------------| 
 
 
e:--------------------| 
B:--------------------| 
G:--------------------| 
D:-7-7--3-3--2-2--8-8-| 
A:-5-5--1-1--0-0--6-6-| 
E:--------------------| 
 

	        

See Also: