Fear

I Dont Care About You(Tabs)

Fear

roll up this ad to continue

	        tabbed by Rudy Guzman 
 
 
 
 
[email protected] 
 
 
 
|-------------------------------------| 
|-3----3--2---3--3--3/5-5-5-5-5-5-5-5-| 
|-2----2--2---2--2--2/4-4-4-4-4-4-4-4-| 
|-0----0--2---0--0--0---0-0-0-0-0-0-0-| 
|---------0---------------------------| 
|-------------------------------------| 
 
 
|---------------------------------------------| 
|-3--3--3-3-3--2-2-2-2-2-2-2-2--5-5-5-5-5-5-5-| 
|-2--2--2-2-2--2-2-2-2-2-2-2-2--4-4-4-4-4-4-4-| 
|-0--0--0-0-0--2-2-2-2-2-2-2-2--2-2-2-2-2-2-2-| 
|--------------0-0-0-0-0-0-0-0----------------| 
|---------------------------------------------| 
 
 
|------------------------------------------| 
|------------------------------------------| 
|------------------------------------4-4-4-| 
|-x-x-x-x-x-x-x-x-x-x-x-x-x-x-x-x-x--x-x-x-| 
|-2-2-2-2-2-2-2-2-2-2-2-2-2-2-2-2-2--2-2-2-| 
|------------------------------------------| 
 
 
|-----------------------------| 
|-----------------------------| 
|-----------------------4-2---| 
|-x-x-x-x-x-x-x-x-x-x---x-x-4-| 
|-2-2-2-2-2-2-2-2-2-2---2-0-x-| 
|---------------------------2-| 
 
 
|---------------------------------------------| 
|-3--3--3-3-3--2-2-2-2-2-2-2-2--5-5-5-5-5-5-5-| 
|-2--2--2-2-2--2-2-2-2-2-2-2-2--4-4-4-4-4-4-4-| 
|-0--0--0-0-0--2-2-2-2-2-2-2-2--2-2-2-2-2-2-2-| 
|--------------0-0-0-0-0-0-0-0----------------| 
|---------------------------------------------| 
 
|------------------------------------------| 
|------------------------------------------| 
|------------------------------------4-4-4-| 
|-x-x-x-x-x-x-x-x-x-x-x-x-x-x-x-x-x--x-x-x-| 
|-2-2-2-2-2-2-2-2-2-2-2-2-2-2-2-2-2--2-2-2-| 
|------------------------------------------| 
 
 
|-----------------------------| 
|-----------------------------| 
|-----------------------4-2---| 
|-x-x-x-x-x-x-x-x-x-x---x-x-4-| 
|-2-2-2-2-2-2-2-2-2-2---2-0-x-| 
|---------------------------2-| 
 
 
|---------------------------------------------| 
|-3--3--3-3-3--2-2-2-2-2-2-2-2--5-5-5-5-5-5-5-| 
|-2--2--2-2-2--2-2-2-2-2-2-2-2--4-4-4-4-4-4-4-| 
|-0--0--0-0-0--2-2-2-2-2-2-2-2--2-2-2-2-2-2-2-| 
|--------------0-0-0-0-0-0-0-0----------------| 
|---------------------------------------------| 
 
|---------------------| 
|-15---------15-------| 
|-----12~~~-----12~~~-| 
|---------------------| 
|---------------------| 
|---------------------| 
 
 
|------------------------------------| 
|------------------------------------| 
|------------------------------------| 
|-x-x-x-x-x-x-x-x-x-x-x-x-x-x-x-x-x--| 
|-2-2-2-2-2-2-2-2-2-2-2-2-2-2-2-2-2--| 
|------------------------------------| 
 
 
|-----------------------------| 
|-----------------------------| 
|-----------------------4-2---| 
|-x-x-x-x-x-x-x-x-x-x---x-x-4-| 
|-2-2-2-2-2-2-2-2-2-2---2-0-x-| 
|---------------------------2-| 
 
 
|---------------------------------------------| 
|-3--3--3-3-3--2-2-2-2-2-2-2-2--5-5-5-5-5-5-5-| 
|-2--2--2-2-2--2-2-2-2-2-2-2-2--4-4-4-4-4-4-4-| 
|-0--0--0-0-0--2-2-2-2-2-2-2-2--2-2-2-2-2-2-2-| 
|--------------0-0-0-0-0-0-0-0----------------| 
|---------------------------------------------| 
 
|-------------| 
|-------------| 
|--9-----7----| 
|-----7----7/-| 
|-------------| 
|-------------| 
 
 
 
|------------------------------------------| 
|------------------------------------------| 
|------------------------------------4-4-4-| 
|-x-x-x-x-x-x-x-x-x-x-x-x-x-x-x-x-x--x-x-x-| 
|-2-2-2-2-2-2-2-2-2-2-2-2-2-2-2-2-2--2-2-2-| 
|------------------------------------------| 
 
 
|-----------------------------| 
|-----------------------------| 
|-----------------------4-2---| 
|-x-x-x-x-x-x-x-x-x-x---x-x-4-| 
|-2-2-2-2-2-2-2-2-2-2---2-0-x-| 
|---------------------------2-| 
 
 
|---------------------------------------------| 
|-3--3--3-3-3--2-2-2-2-2-2-2-2--5-5-5-5-5-5-5-| 
|-2--2--2-2-2--2-2-2-2-2-2-2-2--4-4-4-4-4-4-4-| 
|-0--0--0-0-0--2-2-2-2-2-2-2-2--2-2-2-2-2-2-2-| 
|--------------0-0-0-0-0-0-0-0----------------| 
|---------------------------------------------| 
 
|--------------------------| 
|-13-13----13-13----13-----| 
|-------12-------12----12/-| 
|--------------------------| 
|--------------------------| 
|--------------------------| 
 
|------------------------------------------------------------------| 
|-3--3--3-3-3--2-2-2-2-2-2-2-2--5------------------0---------------| 
|-2--2--2-2-2--2-2-2-2-2-2-2-2--4--------0--0----------------------| 
|-0--0--0-0-0--2-2-2-2-2-2-2-2--2---------------------2--(2)/------| 
|--------------0-0-0-0-0-0-0-0-----------------1-------------1-(1)/| 
|------------------------------------------------------------------| 
 

	        

See Also: