Fall Out Boy

My Heart Is The Worst Kind Of Weapon(Tabs)

Fall Out Boy

Key: Am

roll up this ad to continue

	        E|-0-0--x--0-0-0--x--0-3-3--x--3-3-3-x--3-7-7--x--7-7-7--x--7--8--8--x---8--8--8-| 
B|-0-0--x--0-0-0--x--0-3-3--x--3-3-3-x--3-7-7--x--7-7-7--x--7--8--8--x---8-10-10-| 
G|-5-5--x--5-5-5--x--5-5-5--x--5-5-5-x--5-9-9--x--9-9-9--x--9--9--9--x---9--9--9-| 
D|-5-5--x--5-5-5--x--5-5-5--x--5-5-5-x--5-9-9--x--9-9-9--x--9-10-10--x--10-10-10-| 
A|-0-0--x--0-0-0--x--0-3-3--x--3-3-3-x--3-7-7--x--7-7-7--x--7--8--8--x---8--8--8-| 
E|-------------------------------------------------------------------------------| 

I spent most of last night dragging this lake for the corpses of all my past mistakes 



E|-0-0--x--0-0-0--x--0-3-3--x--3-3-3-x--3-7-7--x--7-7-7--x--7--8--8--x---8--8--8-| 
B|-0-0--x--0-0-0--x--0-3-3--x--3-3-3-x--3-7-7--x--7-7-7--x--7--8--8--x---8--8--8-| 
G|-5-5--x--5-5-5--x--5-5-5--x--5-5-5-x--5-9-9--x--9-9-9--x--9--9--9--x---9--9--9-| 
D|-5-5--x--5-5-5--x--5-5-5--x--5-5-5-x--5-9-9--x--9-9-9--x--9-10-10--x--10-10-10-| 
A|-0-0--x--0-0-0--x--0-3-3--x--3-3-3-x--3-7-7--x--7-7-7--x--7--8--8--x---8--8--8-| 
E|-------------------------------------------------------------------------------| 

sell me out- the joke's on you we are salt- you are the wound 



E|-0-0--x--0-0-0--x--0-3-3--x--3-3-3-x--3-7-7--x--7-7-7--x--7--8--8--x---8--8--8-| 
B|-0-0--x--0-0-0--x--0-3-3--x--3-3-3-x--3-7-7--x--7-7-7--x--7--8--8--x---8--8--8-| 
G|-5-5--x--5-5-5--x--5-5-5--x--5-5-5-x--5-9-9--x--9-9-9--x--9--9--9--x---9--9--9-| 
D|-5-5--x--5-5-5--x--5-5-5--x--5-5-5-x--5-9-9--x--9-9-9--x--9-10-10--x--10-10-10-| 
A|-0-0--x--0-0-0--x--0-3-3--x--3-3-3-x--3-7-7--x--7-7-7--x--7--8--8--x---8--8--8-| 
E|-------------------------------------------------------------------------------| 

empty another bottle and let me tear you to pieces this is me wishing you into the 
worst situations 



E|-0-0--x--0-0-0--x--0-3-3--x--3-3-3-x--3-7-7--x--7-7-7--x--7--8-8-8-8-8-8-8-8-| 
B|-0-0--x--0-0-0--x--0-3-3--x--3-3-3-x--3-7-7--x--7-7-7--x--7-1010101010101010-| 
G|-5-5--x--5-5-5--x--5-5-5--x--5-5-5-x--5-9-9--x--9-9-9--x--9--9-9-9-9-9-9-9-9-| 
D|-5-5--x--5-5-5--x--5-5-5--x--5-5-5-x--5-9-9--x--9-9-9--x--9-1010101010101010-| 
A|-0-0--x--0-0-0--x--0-3-3--x--3-3-3-x--3-7-7--x--7-7-7--x--7--8-8-8-8-8-8-8-8-| 
E|-----------------------------------------------------------------------------| 

I'm the kind of kid that can't let anything go but you wouldn't know a good thing 
if it came up and slit your throat 


     Am       G     C     Dm      F 
E|--0-0-000--3-33--0-00--1-1-11--1-1-1-11--| 
B|--1-1-111--3-33--1-11--3-3-33--1-1-1-11--| 
G|--2-2-222--0-00--0-00--2-2-22--2-2-2-22--| 
D|--2-2-222--0-00--2-22--0-0-00--3-3-3-33--| X2 
A|--0-0-000--2-22--3-33----------3-3-3-33--| 
E|-----------3-33----------------1-1-1-11--| 

woooahh wooaah ohhh wooaah wooaah 



E|-0-0--x--0-0-0--x--0-3-3--x--3-3-3-x--3-7-7--x--7-7-7--x--7--8--8--x---8--8--8-| 
B|-0-0--x--0-0-0--x--0-3-3--x--3-3-3-x--3-7-7--x--7-7-7--x--7--8--8--x---8-10-10-| 
G|-5-5--x--5-5-5--x--5-5-5--x--5-5-5-x--5-9-9--x--9-9-9--x--9--9--9--x---9--9--9-| 
D|-5-5--x--5-5-5--x--5-5-5--x--5-5-5-x--5-9-9--x--9-9-9--x--9-10-10--x--10-10-10-| 
A|-0-0--x--0-0-0--x--0-3-3--x--3-3-3-x--3-7-7--x--7-7-7--x--7--8--8--x---8--8--8-| 
E|-------------------------------------------------------------------------------| 

Your remorse hasn't fallen on deaf ears rather ones that just don't care because I 
know that you're in between arms somewhere 



E|-0-0--x--0-0-0--x--0-3-3--x--3-3-3-x--3-7-7--x--7-7-7--x--7--8-8-8-8-8-8-8-8-| 
B|-0-0--x--0-0-0--x--0-3-3--x--3-3-3-x--3-7-7--x--7-7-7--x--7--8-8-8-8-8-8-8-8-| 
G|-5-5--x--5-5-5--x--5-5-5--x--5-5-5-x--5-9-9--x--9-9-9--x--9--9-9-9-9-9-9-9-9-| 
D|-5-5--x--5-5-5--x--5-5-5--x--5-5-5-x--5-9-9--x--9-9-9--x--9-1010101010101010-| 
A|-0-0--x--0-0-0--x--0-3-3--x--3-3-3-x--3-7-7--x--7-7-7--x--7--8-8-8-8-8-8-8-8-| 
E|-----------------------------------------------------------------------------| 

Next to heartbeats where you shouldn't dare sleep now I'll teach you a lesson 
for keeping secrets from me 


     F              C         Am 
E|--1-1-1-1-1-111--0-0-0-00--0-0-0-0-0-0--| 
B|--1-1-1-1-1-111--1-1-1-11--1-1-1-1-1-1--| 
G|--2-2-2-2-2-222--0-0-0-00--2-2-2-2-2-2--| 
D|--3-3-3-3-3-333--2-2-2-22--2-2-2-2-2-2--| X4 
A|--3-3-3-3-3-333--3-3-3-33--0-0-0-0-0-0--| 
E|--1-1-1-1-1-111-------------------------| 

Take your taste back peel back your skin and try to forget how it feels inside you 
should try saying no once in a while oh once in while 



E|-0-0--x--0-0-0--x--0-3-3--x--3-3-3-x--3-7-7--x--7-7-7--x--7--8--8--x---8--8--8-| 
B|-0-0--x--0-0-0--x--0-3-3--x--3-3-3-x--3-7-7--x--7-7-7--x--7--8--8--x---8--8--8-| 
G|-5-5--x--5-5-5--x--5-5-5--x--5-5-5-x--5-9-9--x--9-9-9--x--9--9--9--x---9--9--9-| 
D|-5-5--x--5-5-5--x--5-5-5--x--5-5-5-x--5-9-9--x--9-9-9--x--9-10-10--x--10-10-10-| 
A|-0-0--x--0-0-0--x--0-3-3--x--3-3-3-x--3-7-7--x--7-7-7--x--7--8--8--x---8--8--8-| 
E|-------------------------------------------------------------------------------| 

And did you hear the news? I could dissect you and gut you on this stage not as 
eloquent as I may have imagined 



E|-0-0--x--0-0-0--x--0-3-3--x--3-3-3-x--3-7-7--x--7-7-7--x--7--8--8--x---8--8--8-| 
B|-0-0--x--0-0-0--x--0-3-3--x--3-3-3-x--3-7-7--x--7-7-7--x--7--8--8--x---8-10-10-| 
G|-5-5--x--5-5-5--x--5-5-5--x--5-5-5-x--5-9-9--x--9-9-9--x--9--9--9--x---9--9--9-| 
D|-5-5--x--5-5-5--x--5-5-5--x--5-5-5-x--5-9-9--x--9-9-9--x--9-10-10--x--10-10-10-| 
A|-0-0--x--0-0-0--x--0-3-3--x--3-3-3-x--3-7-7--x--7-7-7--x--7--8--8--x---8--8--8-| 
E|-------------------------------------------------------------------------------| 

But it will get the job done (you're done) 



E|-0-0--x--0-0-0--x--0-3-3--x--3-3-3-x--3-7-7--x--7-7-7--x--7--8--8--x---8--8--8-| 
B|-0-0--x--0-0-0--x--0-3-3--x--3-3-3-x--3-7-7--x--7-7-7--x--7--8--8--x---8-10-10-| 
G|-5-5--x--5-5-5--x--5-5-5--x--5-5-5-x--5-9-9--x--9-9-9--x--9--9--9--x---9--9--9-| 
D|-5-5--x--5-5-5--x--5-5-5--x--5-5-5-x--5-9-9--x--9-9-9--x--9-10-10--x--10-10-10-| 
A|-0-0--x--0-0-0--x--0-3-3--x--3-3-3-x--3-7-7--x--7-7-7--x--7--8--8--x---8--8--8-| 
E|-------------------------------------------------------------------------------| 

Every line is plotted and designed to leave you standing on your bedroom window's ledge 


E|-0-0--x--0-0-0--x--0-3-3--x--3-3-3-x--3-7-7--x--7-7-7--x--7--8-8-8-8-8-8-8-8-| 
B|-0-0--x--0-0-0--x--0-3-3--x--3-3-3-x--3-7-7--x--7-7-7--x--7-1010101010101010-| 
G|-5-5--x--5-5-5--x--5-5-5--x--5-5-5-x--5-9-9--x--9-9-9--x--9--9-9-9-9-9-9-9-9-| 
D|-5-5--x--5-5-5--x--5-5-5--x--5-5-5-x--5-9-9--x--9-9-9--x--9-1010101010101010-| 
A|-0-0--x--0-0-0--x--0-3-3--x--3-3-3-x--3-7-7--x--7-7-7--x--7--8-8-8-8-8-8-8-8-| 
E|-----------------------------------------------------------------------------| 

And everyone else that it hits that it gets to is nothing more than collateral damage 


     F              C         Am 
E|--1-1-1-1-1-111--0-0-0-00--0-0-0-0-0-0--| 
B|--1-1-1-1-1-111--1-1-1-11--1-1-1-1-1-1--| 
G|--2-2-2-2-2-222--0-0-0-00--2-2-2-2-2-2--| 
D|--3-3-3-3-3-333--2-2-2-22--2-2-2-2-2-2--| X4 
A|--3-3-3-3-3-333--3-3-3-33--0-0-0-0-0-0--| 
E|--1-1-1-1-1-111-------------------------| 

Take your taste back peel back your skin and try to forget how it feels inside you 
should try saying no once in a while oh once in while 



E|-------|---------| 
B|-------|---------| 
G|-------|---------| 
D|-------|---------| 
A|-------|---------| 
E|--0-0x-|--0-0-0x-| 

 {..X1..) (...X6..) 



E|--0---0-0-0-0-0--x--0-0-0-0--x--0-0-0-0--0-0--x--| 
B|--0---0-0-0-0-0--x--0-0-0-0--x--0-0-0-0--0-0--x--| 
G|--0---0-0-0-0-0--x--0-0-0-0--x--0-0-0-0--0-0--x--| 
D|--2---2-2-2-2-2--x--2-2-2-2--x--2-2-2-2--2-2--x--| X4 
A|--2---2-2-2-2-2--x--2-2-2-2--x--2-2-2-2--2-2--x--| 
E|--0---0-0-0-0-0--x--0-0-0-0--x--0-0-0-0--0-0--x--| 



E|--0-0-----0-3-----3-7-7-----7-7--8--------8-8-8-8-8-8-8---------| 
B|--0-0-----0-3-----3-7-7-----7-7--8--------8-8-8-8-8-8-8---------| 
G|--5-5-----5-5-----5-9-9-----9-9--9--------9-9-9-9-9-9-9---etc.--| 
D|--5-5-----5-5-----5-9-9-----9-9--10-------10101010101010--------| 
A|--0-0-----0-3-----3-7-7-----7-7--8--------8-8-8-8-8-8-8---------| 
E|----------------------------------------------------------------| 

	        

Written by Fall Out Boy

See Also: