Fall Out Boy

Honorable Mention(Tabs)

Fall Out Boy

roll up this ad to continue

	        tuning: normal 
 
Riff 1:                                            Other guitar. 
E------------------------------------------|--------------------------------- 
B------------------------------------------|--------------------------------- 
G------------------------------------------|--------------------------------- 
D-2222222---------77777777-----------------|----55-33-22-33-55-33-22-33-55555 
A-2222222-5555555-55555555--5555555--------|--------------------------------- 
E-0000000-3333333-----------3333333 x's 2--|--------------------------------- 
 
Riff 2:                                                           Other guitar. 
E------------------------------------------------------------|---------------------- 
B------------------------------------------------------------|---------------------- 
G------------------------------------------------------------|---------------------- 
D-------------5-4--------------------------------------------|-3333-2222-3333-555555 
A-33--55--77---------------------333333-555555-777777--------|---------------------- 
E-11--33--55--------x's 2 then --111111-333333-555555 x's 2 -|---------------------- 
 
Riff 3:                                                           Other guitar. 
E--------------------------------------------------------------|----------------------- 
B--------------------------------------------------------------|----------------------- 
G--------------------------------------------------------------|----------------------- 
D----4-----4--77777777--------------4-----4--33-3-33-3-33-33-2-|--5-333-222-333-5-3-2-3 
A-4--2--4--2--55555555-33333333--4--2--4--2--11-1-11-1-11-11-2-|----------------------- 
E-2-----2--------------11111111--2-----2---------------------0-|----------------------- 
 
Riff 4:                             Other guitar. 
E--------------------------------|------------------------------------ 
B--------------------------------|------------------------------------ 
G--------------------------------|------------------------------------ 
D----------77777-55555---------4-|--55-33-55-3333-222-5555-333-22-3333 
A-33-55-77-55555-33333---------2-|------------------------------------ 
E-11-33-55--------------x's 3----|------------------------------------ 
 
Riff 1  
 
Riff 2  
 
Riff 3  
 
Riff 4 
 
Riff 5: 
E------------------------------- 
B------------------------------- 
G------------------------------- 
D-------------------3333-33-3-33 
A-2222-3333--------------11-1-11 
E-----------x's 14-------------- 
pm.... .... 
 
Riff 4 
 
Riff 6: 
E---------------------------------------------- 
B---------------------------------------------- 
G---------------------------------------------- 
D-------------------222222--------55555-777-555 
A-33-33-33-33--3----222222-555555-33333-555-333 
E-11-11-11-11--1----000000-333333-------------- x's 3 
 

	        

Written by Fall Out Boy

See Also: