Fall Out Boy

7 Minutes in Heaven (Atavan Halen)(Tabs)

Fall Out Boy

roll up this ad to continue

	        Intro Pt. 1 
e|------------------------------------| 
B|------------------------------------| 
G|-10-1010--9-99-7-77-10-9-7----------| 
D|-9--9-9---9-99-9-99-9--9-9----------|x2 
A|------------------------------------| 
E|------------------------------------| 
      * *     **   **       


Intro Pt. 2 Lead 
e|--------------------------------------------------| 
B|--------------------------------------------------| 
G|-1111111--8--6666--4--1111111--8888--66--6/8\6----| 
D|-x-x-x-x--x--xxxx--x--x-x-x-x--xxxx--xx--x/x\x----|x2 
A|-9-9-9-9--6--4444--2--9-9-9-9--6666--44--4/6\4----| 
E|--------------------------------------------------| 



Verse 1 Rhythm  
e|----------------------------------------------------| 
B|----------------------------------------------------| 
G|------------44-4------------------44-4--------------| 
D|-66-6-------44-4-x4----22-2-------44-4-x4-----------|x2 
A|-66-6-x4----22-2-------22-2-x4----22-2--------------| 
E|-44-4------------------00-0-------------------------|               
   **         **         **         ** 

Verse gtr 2. 

e|------------------------------------| 
B|------------------------------------| 
G|-10-1010--9-99-7-77-10-9-7----------| 
D|-9--9-9---9-99-9-99-9--9-9----------| 
A|------------------------------------| 
E|------------------------------------| 
      * *     **   ** 


     


Pre Chorus  
e|----------------------------------------------------| 
B|----------------------------------------------------| 
G|--------------44------------------------------------| 
D|-6666-22-4444-44-6666-2222-44444444-----------------|x2 
A|-6666-22-4444-22-6666-2222-44444444-----------------| 
E|-4444-00-2222----4444-0000-22222222-----------------| 


Chorus  
e|--------------------------------------------------------| 
B|--------------------------------------------------------| 
G|-44x----------------------------------------------------| 
D|-44x-4-22x-4-66x-4-22x-4--------------------------------|x4 
A|-22x-4-22x-4-66x-4-22x-4--------------------------------| 
E|-----2-00x-2-44x-2-00x-2--------------------------------| 


Intro 

e|------------------------------------| 
B|------------------------------------| 
G|-10-1010--9-99-7-77-10-9-7----------| 
D|-9--9-9---9-99-9-99-9--9-9----------| 
A|------------------------------------| 
E|------------------------------------| 
      * *     **   ** 


Verse 2 gtr 2. 
e|----------------------------------------------------| 
B|----------------------------------------------------| 
G|------------44-4------------------4444444444444444--| 
D|-66-6-------44-4-x4----22-2-------4444444444444444--| 
A|-66-6-x4----22-2-------22-2-x4----2222222222222222--| 
E|-44-4------------------00-0-------------------------|  
   **         **         **         **************** 

       
pre Chorus 
Chorus 

Bridge  
e|-----------------------------------------| 
B|-----------------------------------------| 
G|----------6----------------4-------------| 
D|-6--------6-x16---2--------4-x16---------|x2 
A|-6-x16----4-------2-x16----2-------------| 
E|-4----------------0----------------------|               
   *        *        *        *  


Bridge gtr 2. 
e|------------------------------------| 
B|------------------------------------| 
G|-10-1010--9-99-7-77-10-9-7----------| 
D|-9--9-9---9-99-9-99-9--9-9----------| 
A|------------------------------------| 
E|------------------------------------| 
      * *     **   ** 



e|----------------------------------------------------| 
B|----------------------------------------------------| 
G|----------------------------------------------------| 
D|-66----44----6666-2222-4444-------------------------| 
A|-66----44----6666-2222-4444-------------------------| 
E|-44----22----4444-0000-2222-------------------------| 

pre Chorus 


Solo 
e|-----------------------------------------------------------------| 
B|-----------------------------------------------------------------| 
G|-----------------------------------------------------------------| 
D|-11-11h13-11\9-11h13-11\9-11h13-11\9-----11-11h13-11\9-11h13-11--|x2 
A|-------------------------------------9---------------------------| 
E|-----------------------------------------------------------------| 

Chorus 

end on  

e|--------------| 
B|--------------| 
G|--------------| 
D|---4----------| 
A|---4----------| 
E|---2----------| 

	        

Written by Fall Out Boy / Patrick Stump / Pete Wentz

See Also: