E-Chords
Evarose

Change (acoustic)(Tabs)

Evarose

 
 

Verse (x4) 
e|----------------------------| 
B|----------------------------| 
G|-----------------------9~~~-| 
D|-----4(/5)----5-4----7------| 
A|---2--------3------5--------| 
E|-0--------------------------| 

'It's getting harder and harder'  
             (x4)        end on 
e|-3333--3333--22222222-|-2~~~| 
B|-3333--3333--33333333-|-3~~~| 
G|-0000--0000--22222222-|-2~~~| 
D|-2222--2222--00000000-|-0~~~| 
A|-2222--3333-----------|-----| 
E|-0000-----------------|-----| 


Chorus 
e|-33-333--33-333--33-333--33-333-| 
B|-33-333--33-333--33-333--33-333-| 
G|-00-000--00-000--00-000--22-222-| 
D|-22-222--22-222--00-000--00-000-| 
A|-22-222--33-333--22-222--00-000-| 
E|-00-000----------33-333--22-222-| 

'When I'm with you' 
e|-3~~~3~~~3~~~3~~~| 
B|-3~~~3~~~3~~~3~~~| 
G|-0~~~0~~~0~~~0~~~| 
D|-2~~~0~~~2~~~0~~~| 
A|-2~~~2~~~2~~~2~~~| 
E|-0~~~3~~~0~~~3~~~| 

This isn't me (x4) 
e|------------| 
B|-8~~~5~~~7~~| 
G|-9~~~5~~~7~~| 
D|-9~~~5~~~7~~| 
A|-7~~~3~~~5~~| 
E|------------| 

       (x2) 
e|------------------|-------| 
B|-888-8888-555-777-|-8-8-8-| 
G|-999-9999-555-777-|-9-9-9-| 
D|-999-9999-555-777-|-9-9-9-| 
A|-777-7777-333-555-|-7-7-7-| 
E|------------------|-------| 

 

roll up this ad to continue

share this page

See Also: