E-Chords
Enter Shikari

Zzzonked(Tabs)

Enter Shikari

roll up this ad to continue

Key: C
First Section: 
D|--------------------------------------------------------------------------| 
A|--------------------------------------------------------------------------| 
F|--------------------------------------------------------------------------| 
C|--------------------------------------------------------------------------| 
G|-3--------2------4--3-------------4-3--3--------2------4--3----9-8-7-6-5-4| 
C|-3----3-4----3-4----3----3333~-333-----3----3-4----3-4----3----9-8-7-6-5-4| 
                         PMxxx   xxx                             x x x x x x 
D|--------------------------------------------------------------------------| 
A|--------------------------------------------------------------------------| 
F|--------------------------------------------------------------------------| 
C|--------------------------------------------------------------------------| 
G|-3--------2------4--3~----------------2~------2------4--3------------1111-| 
C|-3----3-4----3-4----3~-------3333-4-1-----3-4----3-4----3---3333-4-1------| 
                               xxx                            xxx 
D|--------------------------------------------------------------------------| 
A|--------------------------------------------------------------------------| 
F|--------------------------------------------------------------------------| 
C|--------------------------------------------------------------------------| 
G|-3--------2------4--3-------------4-3--3--------2------4--3----9-8-7-6-5-4| 
C|-3----3-4----3-4----3----3333~-333-----3----3-4----3-4----3----9-8-7-6-5-4| 
                         PMxxx   xxx                             x x x x x x 
D|--------------------------------------------------------------------------| 
A|--------------------------------------------------------------------------| 
F|--------------------------------------------------------------------------| 
C|--------------------------------------------------------------------------| 
G|-3--------2------4--3~----------------2~------2------4--3------------1111-| 
C|-3----3-4----3-4----3~-------3333-4-1-----3-4----3-4----3---3333-4-1------| 
                               xxx                            xxx 
Second Section: 'Roll up...' 
D|--------------------------------------------------------------------------| 
A|--------------------------------------------------------------------------| 
F|--------------------------------------------------------------------------| 
C|--------------------------------------------------------------------------| 
G|-3--------2------4--3--------3--------2------4--3----------4-3--3--------2| 
C|-3----3-4----3-4----3--------3----3-4----3-4----3--3333-333-----3----3-4--| 

D|--------------------------------------------------------------------------| 
A|--------------------------------------------------------------------------| 
F|--------------------------------------------------------------------------| 
C|--------------------------------------------------------------------------| 
G|-----4--3--------3--------2------4--3------------1111---------------------| 
C|-3-4----3--------3----3-4----3-4----3---3333-4-1--------------------------| 
                                          xxx 
D|--------------------------------------------------------------------------| 
A|--------------------------------------------------------------------------| 
F|--------------------------------------------------------------------------| 
C|--------------------------------------------------------------------------| 
G|-3--------2------4--3--------3--------2------4--3----------4-3--3--------2| 
C|-3----3-4----3-4----3--------3----3-4----3-4----3--3333-333-----3----3-4--| 

D|--------------------------------------------------------------------------| 
A|--------------------------------------------------------------------------| 
F|--------------------------------------------------------------------------| 
C|--------------------------------------------------------------------------| 
G|-----4--3--------3--------2------4--3------------1111---------------------| 
C|-3-4----3--------3----3-4----3-4----3---3333-4-1--------------------------| 
                                          xxx 
Little break bit (MAAATE!): 
D|--------------------------------------------------------------------------| 
A|--------------------------------------------------------------------------| 
F|--------------------------------------------------------------------------| 
C|-3b---------------------4----------4--------4-----------------------------| 
G|-3b-------2------4--------3-3--------3--------3*--------------------------| 
C|-3b---3-4----3-4----3-4--------3-4------3-4-------------------------------| 
                                                bend this AH up and back down 

Balls out, murder your mother section (I PROTEST!): 
D|--------------------------------------------------------------------------| 
A|--------------------------------------------------------------------------| 
F|--------------------------------------------------------------------------| 
C|-0-1-3-4~--1-1-1-3-0~--0-1-3-4~--1-1-3-0-0~--0-1-3-4~--1-1-1-3-0-1-1-111-1| 
G|-0-1-3-4~--1-1-1-3-0~--0-1-3-4~--1-1-3-0-0~--0-1-3-4~--1-1-1-3-0-1-1-111-1| 
C|-0-1-3-4~--1-1-1-3-0~--0-1-3-4~--1-1-3-0-0~--0-1-3-4~--1-1-1-3-0-1-1-111-1| 

D|--------------------------------------------------------------------------| 
A|--------------------------------------------------------------------------| 
F|--------------------------------------------------------------------------| 
C|-1-4-4-444-4-4~-----------------------------------------------------------| 
G|-1-4-4-444-4-4~-----------------------------------------------------------| 
C|-1-4-4-444-4-4~-----------------------------------------------------------| 

I PROTEST! 
D|--------------------------------------------------------------------------| 
A|--------------------------------------------------------------------------| 
F|--------------------------------------------------------------------------| 
C|-0-1-3-4~--1-1-1-3-0~--0-1-3-4~--1-1-3-0-0~--0-1-3-4~--1-1-1-3-0-1-1-111-1| 
G|-0-1-3-4~--1-1-1-3-0~--0-1-3-4~--1-1-3-0-0~--0-1-3-4~--1-1-1-3-0-1-1-111-1| 
C|-0-1-3-4~--1-1-1-3-0~--0-1-3-4~--1-1-3-0-0~--0-1-3-4~--1-1-1-3-0-1-1-111-1| 

D|--------------------------------------------------------------------------| 
A|--------------------------------------------------------------------------| 
F|--------------------------------------------------------------------------| 
C|-1-4-4-444-4-4~-----------------------------------------------------------| 
G|-1-4-4-444-4-4~-----------------------------------------------------------| 
C|-1-4-4-444-4-4~-----------------------------------------------------------| 

For the techno bits, they basically play this riff, so just improvise around it, or just  
dance around like a madman like Rory C live. 

Outro(YEAH!!!!): 
D|--------------------------------------------------------------------------| 
A|--------------------------------------------------------------------------| 
F|--------------------------------------------------------------------------| 
C|-0-1-3-4~--1-1-1-3-0~--0-1-3-4~--1-1-3-0-0~--0-1-3-4~--1-1-1-3-0-1-1-111-1| 
G|-0-1-3-4~--1-1-1-3-0~--0-1-3-4~--1-1-3-0-0~--0-1-3-4~--1-1-1-3-0-1-1-111-1| 
C|-0-1-3-4~--1-1-1-3-0~--0-1-3-4~--1-1-3-0-0~--0-1-3-4~--1-1-1-3-0-1-1-111-1| 

D|--------------------------------------------------------------------------| 
A|--------------------------------------------------------------------------| 
F|--------------------------------------------------------------------------| 
C|-1-4-4-444-4-4~-----------------------------------------------------------| 
G|-1-4-4-444-4-4~-----------------------------------------------------------| 
C|-1-4-4-444-4-4~-----------------------------------------------------------| 

D|--------------------------------------------------------------------------| 
A|--------------------------------------------------------------------------| 
F|--------------------------------------------------------------------------| 
C|-0-1-3-4~--1-1-1-3-0~--0-1-3-4~--1-1-3-0-0~--0-1-3-4~--1-1-1-3-0-1-1-111-1| 
G|-0-1-3-4~--1-1-1-3-0~--0-1-3-4~--1-1-3-0-0~--0-1-3-4~--1-1-1-3-0-1-1-111-1| 
C|-0-1-3-4~--1-1-1-3-0~--0-1-3-4~--1-1-3-0-0~--0-1-3-4~--1-1-1-3-0-1-1-111-1| 

D|--------------------------------------------------------------------------| 
A|--------------------------------------------------------------------------| 
F|--------------------------------------------------------------------------| 
C|-1-4-4-444-4-4~-----------------------------------------------------------| 
G|-1-4-4-444-4-4~-----------------------------------------------------------| 
C|-1-4-4-444-4-4~-----------------------------------------------------------| 
On the second repeat, pitch shift it down slowly, either with a pedal or a whammy bar,  
whilst playing it so it eventually sounds like sludgy nonsense 

And that's Zzzonked. I'm sure it's not perfect, so tell me what you think. 
 
share this page

See Also: