E-Chords
Enter Shikari

Snakepit(Tabs)

Enter Shikari

roll up this ad to continue

D|--------------------------------------------------------| 
A|--------------------------------------------------------| 
F|----7-7-7-7-7----7-7-7-7-7------7-7-7-7-7---------------| 
C|--0------------6------------1-0------------6-6--6-6-6-6-| 
G|--0-5-5-5-5-5--6-5-5-5-5-5--1-0-5-5-5-5-5--6-6--6-6-6-6-| 
C|--0------------6------------1-0------------6-6--6-6-6-6-| 

Chorus 

D|---------------------------------------------------------------------| 
A|---------------------------------------------------------------------| 
F|------------------------------------3-3-3-3-3-3-3-3------------------| 
C|--5-5-5-5-5-5-5-5--0-0-0-0-0-0-0-0--3-3-3-3-3-3-3-3--3-3-3-3-3-3-3-3-| 
G|--5-5-5-5-5-5-5-5--0-0-0-0-0-0-0-0--1-1-1-1-1-1-1-1--3-3-3-3-3-3-3-3-| 
C|--5-5-5-5-5-5-5-5--0-0-0-0-0-0-0-0-------------------3-3-3-3-3-3-3-3-| 

Breakdown 

D|-------------------------------------------| 
A|-------------------------------------------| 
F|-------------6-------------------3~~~------| 
C|--0-0-3-2-1----0-1-4--0-0-3-2-1------------|  (3x) 
G|--0-0-3-2-1--4-0-1-4--0-0-3-2-1--1~~~------| 
C|--0-0-3-2-1----0-1-4--0-0-3-2-1------------| 
share this page

See Also: