E-Chords
Enter Shikari

Meltdown(Tabs)

Enter Shikari

roll up this ad to continue

Intro 
D|----------| 
A|----------| 
F|----------| 
C|-0~-------| 
G|-0~-------| 
C|-0~-------| 

Intro Part 2  
D|----------------------------------------------------------------------| 
A|----------------------------------------------------------------------| 
F|----------------------------------------------------------------------| 
C|----------------------------------------------------------------------| 
G|----------------------------------------------------------------------| 
C|-1212121212121212101010101010101088888888222222223333333355555555-----| 

Breakdown (8x) 
D|----------------------------------------------------------------------| 
A|----------------------------------------------------------------------| 
F|----------------------------------------------------------------------| 
C|----------------------------------------------------------------------| 
G|-0--0--000--000~0-----------------------------------------------------| 
C|-0--0--000--000~0-----------------------------------------------------| 


Pre-Chorus (4x) 
D|--------------------------------------------------------------------| 
A|--------------------------------------------------------------------| 
F|--------------------------------------------------------------------| 
C|--------------------------------------------------------------------| 
G|-0-0-000-----------00-8-8-888-3-33-xx0------------------------------| 
C|-0-0-000/12-1212-1200-8-8-888-3-33-xx0------------------------------| 
PM                                   ... 

Pre-Chorus Cont.  
D|------------------------------------------------------| 
A|------------------------------------------------------| 
F|------------------------------------------------------| 
C|------------------------------------------------------| 
G|------------------------------------------------------| 
C|-555555557777777788888888111111111111-----------------| 


Chorus (8x) 
D|-------------------------------------------| 
A|-------------------------------------------| 
F|-7777777777--------------------------------| 
C|-xxxxxxxxxx--------------------------------| 
G|-5555555555--------------------------------| 
C|-------------------------------------------| 


Outro (2x) 
D|--------------------------------------------------------------| 
A|--------------------------------------------------------------| 
F|--------------------------------------------------------------| 
C|--------------------------------------------------------------| 
G|--------------------------------------------------------------| 
C|-0~-~-~-~/12-12120~-~-8~-~-3~---------------------------------|  
share this page

See Also: