E-Chords
Ennio Morricone

La Donna Di Un Fuorilegge(Tabs)

Ennio Morricone

roll up this ad to continue

Intro 

e|-5-------| 
B|-5-------| 
G|-5-------| 
D|-7-------| 
A|-7-------| 
E|-5-------| 


Part 1 (00:01) 

e|-12---------11---------| 
B|----13---------10------| 
G|-----------------------| 
D|-----------------------| 
A|-----------------------| 
E|-----------------------| 


Part 2 (00:06) 

e|-12---------12-11----|-12-------------| 
B|----13------------13-|----10----------| 
G|---------------------|----------------| 
D|---------------------|----------------| 
A|---------------------|----------------| 
E|---------------------|----------------| 


Part 3 (00:11) 

e|-12--------12-11---|-12-------------| 
B|---------13-----13-|----10----------| 
G|-------------------|----------------| 
D|-------------------|----------------| 
A|-------------------|----------------| 
E|-------------------|----------------| 


The whole thing is played 2 times (2nd time: same notes but played slightly differently in respect of timing) 
share this page

See Also: