E-Chords
Emery

The Curse Of Perfect Days(Tabs)

Emery


Intro: Clean (0.00) 

e|-------------------------------------------------------------------------| 
B|-------------------------------------------------------------------------| 
G|-------------------------------------------------------------------------| 
D|-----3---------3--3---------3--3------3--3------3--3--1---3--3--1--------| 
A|--3--4--3---3--4--3--3---3--4--3---3--4--3--3------4--3------4--3--3-----| 
E|--4-----1---4--------1---4---------4--------1---4---------4--------1-----| 

e|-------------------------------------------------------------------------| 
B|-------------------------------------------------------------------------| 
G|------------------------------6------------------------------------------| 
D|--3--3--1---3--3--1---3--3--6-6------------------------------------------| 
A|-----4--3------4--3------4--4--------------------------------------------| 
E|--4---------4---------4--------------------------------------------------| 

Verse 1: Distortion   (0.52)
 
e|------------------------------------------------------------| 
B|------------------------------------------------------------| 
G|----99-1010----99-1010----6666--------6666------------------| 
D|--3399-1010--3399-1010--226666---22-446666------------------| x 2 
A|--3377-8 8---3377-8 8---224444---22-444444------------------| 
E|--11---------11---------00-------00-22----------------------| 

e|------------------------------------| 
B|------------------------------------| 
G|----9999----9999----6666----6666----| 
D|--229999--229999--336666--336666----| x 2 
A|--227777--227999--334444--334444----| 
E|--00------00------11------11--------| 

Verse 2: Rhythm (1.20)
 
e|--------------| 
B|--------------| 
G|--------------| 
D|--2-2-2-3-----| x 4 
A|--2-2-2-3-----| 
E|--0-0-0-1-----| 
	          Pm..... 
e|---------------------| 
B|---------------------| 
G|---------------------| 
D|--2-2-2-3333333------| x 4 
A|--2-2-2-3333333------| 
E|--0-0-0-1111111------| 


Verse 2: Lead     (1.26)  
e|-------------------------------------------------------| 
B|--18~11~16~11~18~11~16~11~18~11~16-18~11~16------------| 
G|-------------------------------------------------------| 
D|-------------------------------------------------------| x 4 
A|-------------------------------------------------------| 
E|-------------------------------------------------------| 

e|-----------------------| 
B|-----------------------| 
G|--6---------4----------| 
D|--6---------4----------| 
A|--4---------2----------| 
E|-----------------------| 

Chorus   (1.47) 

e|-------------------------------------------------------------------------| 
B|-------------------------------------------------------------------------| 
G|--5--------6----5---3-----\-8----\-6----\-8---\-6----8-6-----------------| 
D|-------------------------------------------------------------------------| 
A|--3--------4----3---1-----\-6----\-4----\-6---\-4----6-4-----------------| 
E|-------------------------------------------------------------------------| 

e|---------------------------------------------------------------------| 
B|---------------------------------------------------------------------| 
G|--5--------6----5----3-----------------------------------------------| 
D|-------------------------3---------3---------------------------------| x 2 
A|--3--------4----3----1-----------------------------------------------| 
E|-------------------------1---------1---------------------------------| 

e|--------------------------| 
B|--------------------------| 
G|--------------------------| 
D|--3------\--6------3------| x 2 
A|--------------------------| 
E|--1------\--4------1------| 

Verse 3      (2.20) 

e|------------------------------------------------------------------------| 
B|------------------------------------------------------------------------| 
G|------------------------------------------------------------------------| 
D|--10------10---10-10---10-10---10------10----8---------8--8-------------| 
A|--8--8-8--8--8-8--8--8-8--8----8--8-8--8--8--10-10-10--10-10------------| 
E|------------------------------------------------------------------------| 





e|--------------------------------------------------------------------| 
B|--------------------------------------------------------------------| 
G|--------------------------------------------------------------------| 
D|--10------10---10-10---10-10---10------10----6------6-6-------------| 
A|--8--8-8--8--8-8--8--8-8--8----8--8-8--8--8--4-4-4--4-4-------------| 
E|--------------------------------------------------------------------| 

e|------------------------------------------------------------------| 
B|------------------------------------------------------------------| 
G|------------------------------------------------------------------| 
D|--10------10---10-10---10-10---10------10----8------8-8-----------| 
A|--8--8-8--8--8-8--8--8-8--8----8--8-8--8--8--6-6-6--6-6-----------| 
E|------------------------------------------------------------------| 

e|--------------------------------------------------------| 
B|--------------------------------------------------------| 
G|--------------------------------------------------------| 
D|--10------10---10-10---10-10-----8----6----5------------| 
A|--8--8-8--8--8-8--8--8-8--8------6----4----3------------| 
E|--------------------------------------------------------| 

Verse 4    (2.42) 

e|-----------------------| 
B|-----------------------| 
G|--5--\--10--------5----| 
D|-----------------------| 
A|--3--\--8---------3----| 
E|-----------------------| 

Or 

e|-----------------------------| 
B|-----------------------------| 
G|--6--------------------------| 
D|--6-----------------3--------| 
A|--4-----------------3--------| 
E|--------------------1--------| 

e|---------------| 
B|---------------| 
G|--10---8---5---| 
D|---------------| x 2 
A|--8----6---3---| 
E|---------------| 

e|-----------------------------------------------------| 
B|-----------------------------------------------------| 
G|--6--------------------------------------------------| 
D|--6----------------6-----------4---------------------| 
A|--4----------------6-----------4---------------------| 
E|-------------------4-----------2---------------------| 

e|-----------------------| 
B|-----------------------| 
G|--5--\--10--------5----| 
D|-----------------------| 
A|--3--\--8---------3----| 
E|-----------------------| 

Or 

e|-----------------------------| 
B|-----------------------------| 
G|--6--------------------------| 
D|--6-----------------3--------| 
A|--4-----------------3--------| 
E|--------------------1--------| 

e|---------------| 
B|---------------| 
G|--10---8---5---| 
D|---------------| x 2 
A|--8----6---3---| 
E|---------------| 

e|-----------------------------------------------------------------| 
B|-----------------------------------------------------------------| 
G|--6------------------3-------------------------------------------| 
D|--6------------------3------------------6------------------------| 
A|--4------------------1------------------6------------------------| 
E|----------------------------------------4------------------------| 

e|-----------------------------------------------------------------| 
B|-----------------------------------------------------------------| 
G|-----------------------------------------------------------------| 
D|--4----------------------------------4-----------------6---------| 
A|--4----------------------------------4-----------------6---------| 
E|--2----------------------------------2-----------------4---------| 


Interlude    (3.12) 
 
    
e|-------------------------------------------------------------------------| 
B|-------------------------------------------------------------------------| 
G|-------------------------------------------------------------------------| 
D|-------------------------------------------------------------------------| 
A|----6---6---6---6---6---6---6---6----6---6---6---6---6---6---6---6-------| 
E|--4---4---4---4---4---4---4---4----6---6---6---6---6---6---6---6---------| 
   Pm.................................................................. 
e|---------------------------------------------------------------------| 
B|---------------------------------------------------------------------| 
G|---------------------------------------------------------------------| 
D|---------------------------------------6---6---6---6---6---6---6---6-| x 3 
A|----3---3---3---3---3---3---3---3----4---4---4---4---4---4---4---4---| 
E|--1---1---1---1---1---1---1---1--------------------------------------| 
   Pm.................................... 
e|------------------------------------------------| 
B|------------------------------------------------| 
G|------------------------------------------------| 
D|--6-------------------3-------------------------| x 2 
A|--6-------------------3-------------------------| 
E|--4-------------------1-------------------------| 



Pre-Chorus   (3.56) 

e|-------------------------------------------------------------------------| 
B|-------------------------------------------------------------------------| 
G|-------------------------------------------------------------------------| 
D|-------------------------------------------------------------------------| 
A|--3-3-3-3-3-3-3-3--4-3-1----3-3-3-3-3-3-3-3--4-3-1----\-6-6-6-6--3-3-3-3-| 
E|-------------------------4-------------------------4---------------------| 

e|-------------------| 
B|-------------------| 
G|-------------------| 
D|-------------------| 
A|--4-3-1------------| 
E|---------4--1------| 






Chorus Outro    (4.08) 


e|-------------------------------------------------------------------------| 
B|-------------------------------------------------------------------------| 
G|--5--------6----5---3-----\-8----\-6----\-8---\-6----8-6-----------------| 
D|-------------------------------------------------------------------------| 
A|--3--------4----3---1-----\-6----\-4----\-6---\-4----6-4-----------------| 
E|-------------------------------------------------------------------------| 

e|-------------------------------------------------------------| 
B|-------------------------------------------------------------| 
G|--5--------6----5----3---------------------------------------| 
D|-------------------------3---------6---------3---------------| 
A|--3--------4----3----1---------------------------------------| 
E|-------------------------1---------4---------1---------------| 

e|---------------------------------| 
B|---------------------------------| 
G|---------------------------------| 
D|--3---------6---------3----------| 
A|---------------------------------| 
E|--1---------4---------1----------| 

End (4.27) 

roll up this ad to continue

share this page

See Also: