Detonautas

Ladrão de Gravata(Tabs)

Detonautas

Key: E

roll up this ad to continue

	        Riff1: 
e------------------------------------- 
B------------------------------------- 
G-------------------------------------    Várias vezes 
D------------------------------------- 
A-----------------0------------------- 
E-0-0-3-3-3-3-2-2--3-0-0-3-3-3-3-2(3)2 
 
Riff2: 
e------------------------------------- 
B------------------------------------- 
G-------------------------------------     
D-2-2-2-2-2-2~------------------------- 
A-2-2-2-2-2-2~------------------------ 
E-0-0-0-0-0-0~------------------------ 

Refrão base: 
E-E-G-G-G-A-A-A      Várias Vezes 
 
Ponte base: 
E-E-G-G-F#-F#-A-G-E  Várias Vezes 
 
 
 
 
Mus. toda: 
riff1 Várias Vezes 
riff2x1 
Refrãox2 
riff1 Várias Vezes 
ponte x 2 
riff2x1 
Refrão 
 
 
 
Qualquer duvida me mande um e mail
	        

Written by Clyeston Oliveira, C. H. de Oliveira, E. Lopes, E. S. Lopes, F. Silva, F. B. da Silva, Luis Araujo, Luis G. B. F. Araujo, R. Rocha, R. M. Rocha, R. Ne

See Also: