E-Chords
David Kramer

Krisjan Swart(Tabs)

David Kramer

roll up this ad to continue

Intro  
e|---------------------------------------------------------------------------| 
B|---------------------------------------------------------------------------| 
G|-----------0--2--0-----------0---------------------------------------------| 
D|--0--2--4-----------4--2--0-----4--2--0------------------------------------| 
A|---------------------------------------------------------------------------| 
E|---------------------------------------------------------------------------| 
  
Verse  
  D             D            A           D            G           D            A           D 
e|-----2-----2-----2-----2-|----0-----0-----2-----2-|----3-----3-----2-----2-|----0-----0-----2-----2-| 
B|-----3-----3-----3-----3-|----2-----2-----3-----3-|----3-----3-----3-----3-|----2-----2-----3-----3-| 
G|-------------------------|------------------------|------------------------|------------------------| 
D|--0-----0-----0-----0----|-------------0-----0----|-------------0-----0----|-------------0-----0----| 
A|-------------------------|-0-----0----------------|------------------------|-0-----0----------------| 
E|-------------------------|------------------------|-3-----3----------------|------------------------| 


  D             D            A           D            G           D            A           D 
e|-----2-----2-----2-----2-|----0-----0-----2-----2-|----3-----3-----2-----2-|----0-----0-----2-----2-| 
B|-----3-----3-----3-----3-|----2-----2-----3-----3-|----3-----3-----3-----3-|----2-----2-----3-----3-| 
G|-------------------------|------------------------|------------------------|------------------------| 
D|--0-----0-----0-----0----|-------------0-----0----|-------------0-----0----|-------------0-----0----| 
A|-------------------------|-0-----0----------------|------------------------|-0-----0----------------| 
E|-------------------------|------------------------|-3-----3----------------|------------------------| 


  G             D            A           D            G           D            A           D 
e|-----3-----3-----2-----2-|----0-----0-----2-----2-|----3-----3-----2-----2-|----0-----0-------------| 
B|-----3-----3-----3-----3-|----2-----2-----3-----3-|----3-----3-----3-----3-|----2-----2-------------| 
G|-------------------------|------------------------|------------------------|------------------------| 
D|--------------0-----0----|-------------0-----0----|-------------0-----0----|-------------0--0--2--0-| 
A|-------------------------|-0-----0----------------|------------------------|-0-----0----------------| 
E|--3------3---------------|------------------------|-3-----3----------------|------------------------| 
  
Chorus  
e|---------------------------| 
B|---------------------------| 
G|---------------------------| 
D|-----0--2--0-----0--2--4---| 
A|--4-----------4------------| 
E|---------------------------| 
  
'Ja hy is...' 

  G             D            A           D            G           D            A           D 
e|-----3-----3-----2-----2-|----0-----0-----2-----2-|----3-----3-----2-----2-|----0-----0-------------| 
B|-----3-----3-----3-----3-|----2-----2-----3-----3-|----3-----3-----3-----3-|----2-----2-------------| 
G|-------------------------|------------------------|------------------------|------------------------| 
D|--------------0-----0----|-------------0-----0----|-------------0-----0----|-------------0--0--2--4-| 
A|-------------------------|-0-----0----------------|------------------------|-0-----0----------------| 
E|--3------3---------------|------------------------|-3-----3----------------|------------------------| 


e|-------------------------------|-----2-----2-----2-----2-|-----2-----2-----2-----2-| 
B|-------------------------------|-----3-----3-----3-----3-|-----3-----3-----3-----3-| 
G|--0--2--0-----------0----------|-------------------------|-------------------------| 
D|-----------4--2--0-----4--2--0-|--0-----0-----0-----0----|--0-----0-----0-----0----| 
A|-------------------------------|-------------------------|-------------------------| 
E|-------------------------------|-------------------------|-------------------------| 
  
************************************************************************ 
The verse comes back here and the song is a repeat of these two blocks until the last verse : 
************************************************************************ 
  
'Nou bokant die stasie daar woon die Swart gesin...' 

  D             D            A           D            G           D            A           D 
e|-----2-----2-----2-----2-|----0-----0-----2-----2-|----3-----3-----2-----2-|----0-----0-----2-----2-| 
B|-----3-----3-----3-----3-|----2-----2-----3-----3-|----3-----3-----3-----3-|----2-----2-----3-----3-| 
G|-------------------------|------------------------|------------------------|------------------------| 
D|--0-----0-----0-----0----|-------------0-----0----|-------------0-----0----|-------------0-----0----| 
A|-------------------------|-0-----0----------------|------------------------|-0-----0----------------| 
E|-------------------------|------------------------|-3-----3----------------|------------------------| 


'Hulle sit daar op die stoep...'                                             'Circles teen die blooooouu...' 

  G             D            A           D            G           D            A           Bm 
e|-----3-----3-----2-----2-|----0-----0-----2-----2-|----3-----3-----2-----2-|----0-----0-----2-----2---| 
B|-----3-----3-----3-----3-|----2-----2-----3-----3-|----3-----3-----3-----3-|----2-----2-----2-----2---| 
G|-------------------------|------------------------|------------------------|--------------------------| 
D|--------------0-----0----|-------------0-----0----|-------------0-----0----|--------------------------| 
A|-------------------------|-0-----0----------------|------------------------|-0-----0-----2-----2------| 
E|--3------3---------------|------------------------|-3-----3----------------|--------------------------| 

               
                                     'Ja, hulle- 

  Bm 
e|-----2-----2---|----0-----0-----0-----0---| 
B|-----2-----2---|----2-----2-----2-----2---| 
G|---------------|--------------------------| 
D|---------------|--------------------------| 
A|--2-----2------|-0-----0-----0-----0------| 
E|---------------|--------------------------| 


-sit daar op die stoep...'                                                   'Circles teen die blooooouu...' 

  G             D            A           D            G           D            A           Bm 
e|-----3-----3-----2-----2-|----0-----0-----2-----2-|----3-----3-----2-----2-|----0-----0-----2-----2---| 
B|-----3-----3-----3-----3-|----2-----2-----3-----3-|----3-----3-----3-----3-|----2-----2-----2-----2---| 
G|-------------------------|------------------------|------------------------|--------------------------| 
D|--------------0-----0----|-------------0-----0----|-------------0-----0----|--------------------------| 
A|-------------------------|-0-----0----------------|------------------------|-0-----0-----2-----2------| 
E|--3------3---------------|------------------------|-3-----3----------------|--------------------------| 


  Bm                                Outro                              D 
e|-----2-----2---|----0-----0------|--------------------------------------2-----------------------------| 
B|-----2-----2---|----2-----2------|--------------------------------------3-----------------------------| 
G|---------------|-----------------|-----------0--2--0-----------0--------2-----------------------------| 
D|---------------|-----------------|--0--2--4-----------4--2--0-----4--2--0-----------------------------| 
A|--2-----2------|-0-----0-----0---|--------------------------------------------------------------------| 
E|---------------|-----------------|--------------------------------------------------------------------| 
  
************************************************************************ 
Officially the song ends on a Bm but I like to end it a little happier.  
Geniet!  
************************************************************************ 
share this page

See Also: