E-Chords
Danny Elfman

Finale(Tabs)

Danny Elfman

roll up this ad to continue

 

Sequence 1: 
e|--------------------------------------------------------------------------| 
B|--------------------------------------------------------------------------| 
G|--------------------------------------------------------------------------| 
D|----------9---------9---------7-------------------------------------------| 
A|-----7---------7---------7------------------------------------------------| 
E|--------------------------------------------------------------------------| 

e|--------------------------------------------------------------------------| 
B|--------------------------------------------------------------------------| 
G|--------------------------------------------------------------------------| 
D|---------9-------9-------7---7-------6------------------------------------| 
A|-----7-------7-------7-----------7----------------------------------------| 
E|--------------------------------------------0-----------------------------| 

e|--------------------------------------------------------------------------| 
B|-----------------------------10--10------9--------------------------------| 
G|-------------9------------------------------------------------------------| 
D|---------9-----------9-------7---7-------6--------------------------------| 
A|-----7-----------7-------7-----------7------------------------------------| 
E|--------------------------------------------------------------------------| 

e|--------------------------------------------------------------------------| 
B|--------------------------------------------------------------------------| 
G|--------------------------------------------------------------------------| 
D|-----------7\9----9-------9-------7-------7-------6-------6-------6-------| 
A|-----7h9--------------7-------7-------7-------7-------7-------7-------7---| 
E|--------------------------------------------------------------------------| 

Sequence 2: 
e|--<12>------------------------------------------------------------------| 
B|-------------12-------12-------10---10-------9--------------------------| 
G|---------9--------9--------9-------------9------------------------------|x2 
D|------------------------------------------------------------------------| 
A|------------------------------------------------------------------------| 
E|------------------------------------------------------------------------| 

e|------------------------------------------------------------------------| 
B|--------------9\11-------12-------12-------10---10-------9--------------| 
G|-----9h11------------9--------9--------9-------------9------------------|x2 
D|------------------------------------------------------------------------| 
A|------------------------------------------------------------------------| 
E|------------------------------------------------------------------------| 

e|--------------------------------------------------------------------------| 
B|----------9\12---12-------12-------10-------10-------9-------9-------9----| 
G|---9h11---------------9--------9--------9--------9-------9-------9--------| 
D|--------------------------------------------------------------------------| 
A|--------------------------------------------------------------------------| 
E|--------------------------------------------------------------------------| 

 
share this page

See Also: