Damageplan

Maria(Tabs)

Damageplan

roll up this ad to continue

	        Intro: 
 
e |---------------------------------------------------------| 
B |0-------0PM----0-------0PM----0-0-----0-------0-------0PM| 
G |--1-1--------2---2---2------4-------2---2---1---1---1----| 
D |------2----3-------3------5-------3-------2-------2------| 
A |---------------------------------------------------------| 
E |---------------------------------------------------------| X 1 
 
(MAIN RIFF) - second part of intro 
 
e |-------------------------------------------------------------| 
B |----0-------0PM----0-------0PM----0-0-----0-------0-------0PM| 
G |--1---1---1------2---2---2------4-------2---2---1---1---1----| 
D |2-------2------3-------3------5-------3-------2-------2------| 
A |-------------------------------------------------------------| 
E |-------------------------------------------------------------| 
 
OVER THE MAIN RIFF (second part) BY A SECOND GUITAR IS PLAYED(YOU CAN HEAR WHEN IT'S PLAYED IN THE SONG): 
 
x8 x8 x8 
e |-------------------|-----|-----|-----|-----------------------| 
B |-------------------|--0--|--0--|--0--|-----------------------| 
G |-------------------|--4--|--2--|--1--|-----------------------| 
D |7p6-4/6----9p7-6/7-|--5--|--3--|--2--|-----------------------| 
A |-------------------|-----|-----|-----|-----------------------| 
E |-------------------|-----|-----|-----|-----------------------| 
played very fast 
Intro Solo: 
 
 
e |1p0---0--0-1-3-5--5-5-5/7-7--7-7-5--5-5-4--1p0-----------------------| 
B |----3------------------------------------------3-2-3-2-0-------------| 
G |---------------------------------------------------------2-0---------| 
D |-------------------------------------------------------------3-2-0-2-| 
A |---------------------------------------------------------------------| 
E |---------------------------------------------------------------------| 
 
 
e |0-1-3-5-5/7--7-7-7/12-12-12--10-12-10--10-10-10-7-7-75-5-| 
B |----------------------------------------------------------| 
G |----------------------------------------------------------| 
D |----------------------------------------------------------| 
A |----------------------------------------------------------| 
E |----------------------------------------------------------| 
 
e |0-1-3-3/5-5-5/7--12-12-12-12-12---------------------------| 

	        

See Also: