E-Chords
Crywank

Lucky And Wasteful(Tabs)

Crywank

e|---------------------------------------------------------------------------| 
B|---------------------------------------------------------------------------| 
G|---------------------------------------------------------------------------| 
D|------4---4---4---4---4---4---4---4---0---0---0---0---0---0---0---0--------| 
A|----5---5---5---5---0---0---0---0---2---2---2---2---0---0---0---0----------| 
E|---------------------------------------------------------------------------| 
  
e|--------------------------------------------------------2p---2p------------| 
B|-------7p---7p---------5p---5p---------3p---3p-----------------------------| 
G|---------------------------------------------------------------------------| 
D|------4---4---4---4---4---4---4---4---0---0---0---0---0---0---0---0--------| 
A|----5---5---5---5---0---0---0---0---2---2---2---2---0---0---0---0----------| 
E|---------------------------------------------------------------------------| 


  
************************************ 

| p  Pull-off 

************************************ 

roll up this ad to continue

share this page

See Also: